PrimaNota.ru - самый крупный в мире бесплатный архив песенных текстов, аккордов, табулатур и нот


Led Zeppelin - Heartbreaker Live - таба, видео

Регистрация Запомнить меня
Войти через:  Facebook Google Twitter Vk Yandex Mail.ru

Led Zeppelin - Heartbreaker Live - таба, видео

Печатать
Просмотров: 173
HEARTBREAKER SOLO LIVE  - Led Zeppelin

THIS VERSION IS FROM THE ALBUM "HOW THE WEST WAS WON"

Recorded in LA, june 25, 1972.

Tabbed by: Dan Mendes


| /   slide up or down
| h   hammer-on
| p   pull-off
| ~   vibrato
| b   Bend
| br  Bend release
| pr  pre bend or one tone bend
| ()  Repeat lick
| []  Muffled note
| x   Mute note

Tuning:standard


e|---------------------------------------------------------------------------|
B|---------------------------------------------------------------------------|
G|0h2~5~-5p2p0------0h2-0h2--0h2--0h2~--5~--5p2p0--------0h2-0h2--0h2--0h2~--|
D|------------2p0--------------------------------2p0-------------------------|
A|---------------3-----------------------------------3-----------------------|
E|---------------------------------------------------------------------------|


e|---------------------------------------------------------------------------|
B|---------------------------------------------------------------------------|
G|5b------5p2p0--6p3p0--7p4p0--8p5p0--9p6p0--10p7p0--11p8p0--12p9p0--13p10p0-|
D|---------------------------------------------------------------------------|
A|---------------------------------------------------------------------------|
E|---------------------------------------------------------------------------|

e|---------------------------------------------------------------------------|
B|---------------------------------------------------------------------------|
G|14p11p0-15p12p0--16p13p0--15p12p0--14p11p0--13p10p0--12p9p0--11p8p0--10p7p0|
D|---------------------------------------------------------------------------|
A|---------------------------------------------------------------------------|
E|---------------------------------------------------------------------------|

e|---------------------------------------------------------------------------|
B|---------------------------------------------------------------------------|
G|9p6p0--8p5p0--7h4h0-6h3h0-(5p2p0-5b)bends behind the nut-------------------|
D|---------------------------------------------------------------------------|
A|---------------------------------------------------------------------------|
E|---------------------------------------------------------------------------|


e|--------------------------------------------------------------5------------|
B|---------------------------------------------------------------8-5---------|
G|----5-7--7b-7b-5-7~-7~---------5-7--7b-7b-5-7~-7~---------5-7b----7-5-7-5--|
D|--7--------------------------7--------------------------7------------7-----|
A|---------------------------------------------------------------------------|
E|---------------------------------------------------------------------------|

e|---------------------------------------------------------------------------|
B|---------------------------------------------------------------------------|
G|-5-7-5-5-------------------------------------------------------------------|
D|7-----7-7-7-5-7-5-5--------------------------------------------------------|
A|-----------------7-7p5/3-5b3-----------------------------------------------|
E|-----------------------------5-3/5-5-5-5-5-5-5-5-5-0-0/5-5-5-5-5-5-5-5-0-0-|

e|---------------------------------------------------------------------------|
B|---------------------------------------------------------------------------|
G|----------------------------------------------------------2-4b---4-2-2-4-2-|
D|-------------------------------------------------------2-4-----4----4------|
A|--------------------------------------------------0/2/4--------------------|
E|-/5-5-5-5-5-5-5-5-5-0-0--/5-5-5-5-5-5-5-5-0-0-5-5--------------------------|

e|--------------------------------2------------------------------------------|
B|-------------------------------2--5-2--------------------------------------|
G|-2---------------------------4b------4-2-4-2-2-2-4-2-2---------------------|
D|4-4-2-2-4-2-----------------------------4-----------4-4-2-2-4-2-2----------|
A|-----4-----4-0-0-4-0-------------------------------------4-----4-4-0-------|
E|--------------4------------------------------------------------------------|

e|-------5-------------------------------------------------------------------|
B|------5-8-5-5--------------------------------------------------------------|
G|--2/6~-----7-5-----------------------7bp5-5------------------------7bp5-5--|
D|--------------7--7-5-7--7-5-7--7-5-7-----7----7-5-7--7-5-7--7-5-7-----7----|
A|---------------------------------------------------------------------------|
E|---------------------------------------------------------------------------|

e|-------------------7-10---7h10p8--7----------------------------------------|
B|--------------8-10---------------8--8p7-7----------------------------------|
G|---------4/9~--------------------------9-9-9p7/5/2-4h5--5h6-6h7-7h8-7h9-7h9|
D|7-5-7----------------------------------------------------------------------|
A|---------------------------------------------------------------------------|
E|---------------------------------------------------------------------------|

e|---------------------------------------------------------------------------|
B|---------------------------------------------------------------------------|
G|7h5-5-7h5-5----------------------------------------------------------------|
D|---7-----7--7h5-5-7h5-5-7h5-5-7-7-5-7-7~/16-------------[16]-16p14--14~-14~|
A|---------------7-----7-----7------------------------14h16---------16-16----|
E|---------------------------------------------------------------------------|

e|---------------------------------------------------------------------------|
B|------------------------------------------------------------------0--------|
G|16b---------14-16p14--14-14-14----------------16-16p14--14~-14~--16--------|
D|------14h16---------16--16---------------14h16---------16-16---------------|
A|------------------------------16pb-----------------------------------------|
E|---------------------------------------------------------------------------|

e|---------------------------------------------------------------------------|
B|16-16pb-14--16-16pb-14--16-16pb-14--16-16pb-14-----------------------------|
G|-----------------------------------------------------16-16p14--14~-14~--16b|
D|------------------------------------------------14h16---------16-16--------|
A|---------------------------------------------------------------------------|
E|---------------------------------------------------------------------------|

e|-------------------------------------------------------------------------14|
B|---------------------------------------------------------------------------|
G|-----14-16p14---14--14-14--------------------16-16p14---14--14-14--16---16b|
D|14-16---------16--16-------------------14h16---------16---16---------------|
A|------------------------16pb-----------------------------------------------|
E|---------------------------------------------------------------------------|

e|---------------------------------------------------------------------------|
B|17-14----------------------------------------------------------------------|
G|-----16p14---16p14---14--14---14---14--14-14--14-14-16b----------14-16p14--|
D|-----------16------16--16---16---16--16-----16--------------14h16----------|
A|---------------------------------------------------------------------------|
E|---------------------------------------------------------------------------|

e|-------------------------------------------------------17p14--14-----------|
B|------------------------------------------------------------17---17p14-----|
G|--14--14-14----------------16-16p14---14---14-14--16------------------16p14|
D|16--16----------------14h16---------16---16--------------------------------|
A|-----------16pb------------------------------------------------------------|
E|---------------------------------------------------------------------------|

e|---------------------------------------------------------------------------|
B|------------------0-------------------0------------------------------------|
G|--16p14--14--14-16p14------------14-16p14---14-16b~/6----------------------|
D|16-----16--16--------16p14--14-16---------16-------------------------------|
A|--------------------------16-----------------------------------------------|
E|---------------------------------------------------------------------------|

e|---------------------------------------------------------------------------|
B|---5--7--7b-7b~---7br-5-7-5--7b-7b-7-5----x/-------------------------------|
G|-7-5--7--7b-7b~---7br-5-7-5--7b-7b-7-5-7--x/-------------------------------|
D|-7-------------------------------------7--x/-------------------------------|
A|--------------------------------------------(scratch the pick on strings)--|
E|---------------------------------------------------------------------------|

e|---------------------------------------------------------------------------|
B|--5--7--7b-7b~---7br-5-7-5--7b-7b-7-5----x/--------------------------------|
G|--5--7--7b-7b~---7br-5-7-5--7b-7b-7-5-7--x/--------------------------------|
D|-7------------------------------------7--x/--------------------------------|
A|-------------------------------------------(scratch the pick on strings)---|
E|---------------------------------------------------------------------------|

e|----------------------------(----5------)-------(8p5-7p5---5-)-------------|
B|----------------------------(------7p5--)-------(-------7----)-------------|
G|-----------------[5]--[7]---(-7b--------)-------(repeat------)-------------|
D|-----------[7]------------------repeat-------------------------------------|
A|---------------------------------------------------------------------------|
E|---------------------------------------------------------------------------|

e|-(8-11p8-10p8--)-----------------------------------------------------------|
B|-(-----------10)--9-10-9p8-9p8p7-5-5h7-5-----------------------------------|
G|--repeat---------------------------------7-7h8/9--7-5-7-5-7-5--5-5-5-5h7p5-|
D|---------------------------------------------------------------------------|
A|---------------------------------------------------------------------------|
E|---------------------------------------------------------------------------|

e|----------------------------------------5-8p5-7p5-8------------------------|
B|-----------------------------------5-7p5---------7-[8]-[5]-----------------|
G|----------------------5-7p5--5-7b-7----0-------------------7-5-5-7p5-7--7-7|
D|-5-------------------7------7---------------------------------------7------|
A|7--7-7-7-7-6-6-6-5--5------------------------------------------------------|
E|---------------------------------------------------------------------------|

e|---------------------------------------------------------------------------|
B|---------------------------------------------------------------------------|
G|5h7p5-----------------------------------8--8--8--7--7--6--6--5--5--4--4--3-|
D|-----7-5-7--5-5-7--5-7-7-5-7-5--[5]-5/9------------------------------------|
A|-------------7-------------------------------------------------------------|
E|---------------------------------------------------------------------------|

e|----------------------------------------------/10------/14-----------17-16-|
B|-----------------------------------------10--------------------------[0]---|
G|3-2~-----------------------4/6-6-9-6-------9------12pb------14pb------0----|
D|-----------------7-9-7-9-7-----------9/11----------------------------------|
A|---------0/2/5h7--------9--------------------------------------------------|
E|---------------------------------------------------------------------------|

e|15--15----------------17--------------------------------14-----------------|
B|--17---(17p15--)--17b---17b--17pb--17b--17br--17b----------17-14----17-14--|
G|-------(-----16)------------------------------------------------16b--------|
D|--------repeat-------------------------------------------------------------|
A|---------------------------------------------------------------------------|
E|---------------------------------------------------------------------------|

e|-----------------------------------------------0--2-----3----2--0------0--2|
B|-------------------------------------------------------------------4-------|
G|16-14---14--14--16--14-14---14-14---12---8~--------------------------------|
D|------16--16------16-----16------------------------------------------------|
A|-------------------------------------------------------------0-----2---0---|
E|-----------------------------------------------3--2-----0------------------|

E|----------------0----------------------------------------------------------|
B|-----0----2--4-------3--1--------------0-----------------------0-----------|
G|--------------------------------------------2p0--------0--2-------2--0-----|
D|--------------------------------------------------4---------------------4-2|
A|--------------------------------------------0-----2----0-------------2-----|
E|-----3----2-----0----2-----------------3-----------------------3----------0|

e|----0--2-----3----2p0--------0h2----------------0--------------------------|
B|------------------------4------------0----2h4--------3p1-----0-------------|
G|------------------------------------------------------------------2p0------|
D|------------------------------------------------------------------------4--|
A|------------------0-----2----0------------------------------------3-----2--|
E|-2--3--2-----0-----------------------3----2-----0----2-------3-------------|
Добавлено: 15.05.2015
Другие материалы по этой песне:
  • Аккорды и текст

Страница создана 15.05.2015
http://primanota.ru/led-zeppelin/heartbreaker-live-chords.htm
Привет, Гость.
Предлагаем пройти революционный курс по гитаре.
Подарок от PrimaNota.Ru, забирай!