PrimaNota.ru - самый крупный в мире бесплатный архив песенных текстов, аккордов, табулатур и нот


Lebbis - Altijd Zeker Is Het Kwaad - таба, видео

Регистрация Запомнить меня
Войти через:  Facebook Google Twitter Vk Yandex Mail.ru

Lebbis - Altijd Zeker Is Het Kwaad - таба, видео

Печатать
Просмотров: 76
Artiest:    Lebbis (http://www.lebbis.nl/)
Conference: Het Kwaad
Song:       Altijd zeker is het kwaad

Tekst en muziek: Hans Sibbel
Copyright © 2006 Harry Kies Theaterproducties


Uitgezocht door: Alexander Westers
E-mail: infernal_purge@hotmail.com


Stemming: Standaard
e|
B|
G|
D|
A|
E|


Tekens voor speelwijze:
h = hammer on
. = gedempt akkoord


Aantekening:
Er was veel vraag naar een tab van dit nummer.
Hier is hij dan.

De tab spreekt voor zich.

Aan het eind van de tab staat nog een keer de
songtekst van het hele nummer.



Riff 1 (Intro):
Em
|-----------------------|---------------------|
|-0----0------0----0----|-0-------------------|
|-0----0-0-0--0----0-0--|-0---0-0-0--0--2--0--|
|-2----2-2-2--2----2-2--|-2---2-2-2--2--------|
|-2----2-2-2--2----2-2--|-2---2-2-2--2--------|
|-0----0-0-0--0----0-0--|-0---0-0-0--0--------|
         .           .          .

C/g
|-----------------------|----------------------|
|-1----1-----1----1-----|-1--------------------|
|-0--0-0-0---0--0-0-0-0-|-0--0-0-0-0--0--2--0--|
|-2--2-2-2---2--2-2-2-2-|-2--2-2-2-2--2--------|
|-3--3-3-3---3--3-3-3-3-|-3--3-3-3-3--3--------|
|-3--3-3-3---3--3-3-3-3-|-3--3-3-3-3--3--------|
     .   .      .   .        .

D/a
|-----------------------|----------------------|
|-3----------3----------|-3--------------------|
|-0----0-----0----0-----|-0----0---0--0--2--0--|
|-4--4-4-4---4--4-4-4---|-4--4-4-4-4--4--------|
|-5--5-5-5---5--5-5-5---|-5--5-5-5-5--5--------|
|-5--5-5-5---5--5-5-5---|-5--5-5-5-5--5--------|
     .   .      .   .        .   .

C/g
|-----------------------|----------------------|
|-1----1-----1----1-----|-1--------------------|
|-0--0-0-0---0--0-0-0-0-|-0--0-0-0-0--0--2--0--|
|-2--2-2-2---2--2-2-2-2-|-2--2-2-2-2--2--------|
|-3--3-3-3---3--3-3-3-3-|-3--3-3-3-3--3--------|
|-3--3-3-3---3--3-3-3-3-|-3--3-3-3-3--3--------|
     .   .      .   .        



Couplet
Riff 1a:
Em
|----------------------|----------------------|
|-0----0-----0----0----|-0--------------------|
|-0--0-0-0---0--0-0-0--|-0--0-0-0-0--0--2--0--|
|-2--2-2-2---2--2-2-2--|-2--2-2-2-2--2--------|
|-2--2-2-2---2--2-2-2--|-2--2-2-2-2--2--------|
|-0--0-0-0---0--0-0-0--|-0--0-0-0-0--0--------|
     .   .      .           .   .
In de Koran daar leest een moslim

C/g
|-----------------------|----------------------|
|-1----1-----1----1-----|-1--------------------|
|-0--0-0-0---0--0-0-0-0-|-0--0-0-0-0--0--2--0--|
|-2--2-2-2---2--2-2-2-2-|-2--2-2-2-2--2--------|
|-3--3-3-3---3--3-3-3-3-|-3--3-3-3-3--3--------|
|-3--3-3-3---3--3-3-3-3-|-3--3-3-3-3--3--------|
     .   .      .   .        .   .
Wat voor de christen in de Bijbel staat

D/a
|-----------------------|-----------------------|
|-3----3-----3----3-----|-3----3-----3----3-----|
|-0--0-0-0---0--0-0-0---|-0--0-0-0---0--0-0-0-0-|
|-4--4-4-4---4--4-4-4---|-4--4-4-4---4--4-4-4-4-|
|-5--5-5-5---5--5-5-5---|-5--5-5-5---5--5-5-5-5-|
|-5--5-5-5---5--5-5-5---|-5--5-5-5---5--5-5-5-5-|
     .   .      .   .        .   .      .   .
En de Jood plundert de Thora

C/g
|-----------------------|----------------------|
|-1----1-----1----1-----|-1--------------------|
|-0--0-0-0---0--0-0-0-0-|-0--0-0-0-0--0--2--0--|
|-2--2-2-2---2--2-2-2-2-|-2--2-2-2-2--2--------|
|-3--3-3-3---3--3-3-3-3-|-3--3-3-3-3--3--------|
|-3--3-3-3---3--3-3-3-3-|-3--3-3-3-3--3--------|
     .   .      .   .            .
Palestijn heeft de Jihad


Riff 1b:
Em
|-----------------------|----------------------|
|-0----0-----0----0-----|-0--------------------|
|-0----0-----0----0---0-|-0--0-0-0-0--0--2--0--|
|-2--2-2-2---2--2-2-2-2-|-2--2-2-2-2--2--------|
|-2--2-2-2---2--2-2-2-2-|-2--2-2-2-2--2--------|
|-0--0-0-0---0--0-0-0-0-|-0--0-0-0-0--0--------|
     .   .      .            
Ook al zijn ze zo verschillend

C/g
|----------------------|----------------------|
|-1----1-----1----1----|-1--------------------|
|-0--0-0-0---0--0-0-0--|-0--0-0-0-0--0--2--0--|
|-2--2-2-2---2--2-2-2--|-2--2-2-2-2--2--------|
|-3--3-3-3---3--3-3-3--|-3--3-3-3-3--3--------|
|-3--3-3-3---3--3-3-3--|-3--3-3-3-3--3--------|
     .   .      .   .       .     
Eén ding wat hen samen smeedt

D/a
|-----------------------|-----------------------|
|-3----3-----3----3-----|-3----3-----3----3---3-|
|-0--0-0-0---0--0-0-0---|-0--0-0-0---0--0-0-0-0-|
|-4--4-4-4---4--4-4-4---|-4--4-4-4---4--4-4-4-4-|
|-5--5-5-5---5--5-5-5---|-5--5-5-5---5--5-5-5-5-|
|-5--5-5-5---5--5-5-5---|-5--5-5-5---5--5-5-5-5-|
     .   .      .   .        .   .      .   .
Priester, rabbijn en moellah

C/g
|-----------------------|-----------------------|
|-1----1-----1----1-----|-1----1-----1----1-----|
|-0--0-0-0---0--0-0-0---|-0--0-0-0---0--0-0-0---|
|-2--2-2-2---2--2-2-2---|-2--2-2-2---2--2-2-2---|
|-3--3-3-3---3--3-3-3---|-3--3-3-3---3--3-3-3---|
|-3--3-3-3---3--3-3-3---|-3--3-3-3---3--3-3-3---|
     .   .      .   .        .   .      .   .
Weet dat hij het zeker weet

C/g
|-----------------------|----------------------|
|-1----1-----1----1-----|-1--------------------|
|-0--0-0-0---0--0-0-0-0-|-0--0-0-0-0--0--2--0--|
|-2--2-2-2---2--2-2-2-2-|-2--2-2-2-2--2--------|
|-3--3-3-3---3--3-3-3-3-|-3--3-3-3-3--3--------|
|-3--3-3-3---3--3-3-3-3-|-3--3-3-3-3--3--------|
     .   .      .   .        
Hij het zeker weet


Riff 1c:
Em
|-----------------------|----------------------|
|-0----0-----0----0-----|-0--------------------|
|-0--0-0-0---0--0-0-0-0-|-0--0-0-0-0--2--0--0--|
|-2--2-2-2---2--2-2-2-2-|-2--2-2-2-2--2--------|
|-2--2-2-2---2--2-2-2-2-|-2--2-2-2-2--2--------|
|-0--0-0-0---0--0-0-0-0-|-0--0-0-0-0--0--------|
     .   .      .            .
Je kan geen uitzonderingen maken

C/g
|-----------------------|----------------------|
|-1----1-----1----1-----|-1--------------------|
|-0--0-0-0---0--0-0-0-0-|-0--0-0-0-0--0--2--0--|
|-2--2-2-2---2--2-2-2-2-|-2--2-2-2-2--2--------|
|-3--3-3-3---3--3-3-3-3-|-3--3-3-3-3--3--------|
|-3--3-3-3---3--3-3-3-3-|-3--3-3-3-3--3--------|
     .   .      .   .        .
Gelijke monnik, gelijke kap

D/a
|-----------------------|-----------------------|
|-3----3-----3----3-----|-3----3-----3----3-----|
|-0--0-0-0---0--0-0-0---|-0--0-0-0---0--0-0-0---|
|-4--4-4-4---4--4-4-4---|-4--4-4-4---4--4-4-4---|
|-5--5-5-5---5--5-5-5---|-5--5-5-5---5--5-5-5---|
|-5--5-5-5---5--5-5-5---|-5--5-5-5---5--5-5-5---|
     .   .      .   .        .   .         
We gaan allemaal of niemand

C/g
|-----------------------|----------------------|
|-1----1-----1----1-----|-1--------------------|
|-0--0-0-0---0--0-0-0-0-|-0--0-0-0-0--0--2--0--|
|-2--2-2-2---2--2-2-2-2-|-2--2-2-2-2--2--------|
|-3--3-3-3---3--3-3-3-3-|-3--3-3-3-3--3--------|
|-3--3-3-3---3--3-3-3-3-|-3--3-3-3-3--3--------|
     .   .      .   .        .   .
Dit is geen onderwerp voor een grap


Riff 1d:
Em
|-----------------------|----------------------|
|-0----0-----0----0-----|-0--------------------|
|-0--0-0-0---0--0-0-0-0-|-0--0-0-0-0--0--2--0--|
|-2--2-2-2---2--2-2-2-2-|-2--2-2-2-2--2--------|
|-2--2-2-2---2--2-2-2-2-|-2--2-2-2-2--2--------|
|-0--0-0-0---0--0-0-0-0-|-0--0-0-0-0--0--------|
     .   .      .            
Tot hier en nooit meer verder

C/g
|-----------------------|----------------------|
|-1----1-----1----1-----|-1--------------------|
|-0--0-0-0---0--0-0-0-0-|-0--0-0-0-0--0--2--0--|
|-2--2-2-2---2--2-2-2-2-|-2--2-2-2-2--2--------|
|-3--3-3-3---3--3-3-3-3-|-3--3-3-3-3--3--------|
|-3--3-3-3---3--3-3-3-3-|-3--3-3-3-3--3--------|
     .   .      .   .        .   .
Dit is de grens, daar is de meet

D/a
|-----------------------|-----------------------|
|-3----3-----3----3-----|-3----3-----3----3-----|
|-0--0-0-0---0--0-0-0---|-0--0-0-0---0--0-0-0---|
|-4--4-4-4---4--4-4-4---|-4--4-4-4---4--4-4-4---|
|-5--5-5-5---5--5-5-5---|-5--5-5-5---5--5-5-5---|
|-5--5-5-5---5--5-5-5---|-5--5-5-5---5--5-5-5---|
     .   .      .   .        .   .      .   .
Grote woorden uitgesproken

C/g
|-----------------------|-------------------------|
|-1----1-----1----1-----|-1----1-----1-1-1-1-1-1--|
|-0--0-0-0---0--0-0-0---|-0--0-0-0---0-0-0-0-0-0--|
|-2--2-2-2---2--2-2-2---|-2--2-2-2---2-2-2-2-2-2--|
|-3--3-3-3---3--3-3-3---|-3--3-3-3---3-3-3-3-3-3--|
|-3--3-3-3---3--3-3-3---|-3--3-3-3---3-3-3-3-3-3--|
     .   .      .   .        .   .      .   .
Door de man die zeker weet

C/g
|-----------------------|-------------------------|
|-1----1-----1----1-----|-1-----------------------|
|-0--0-0-0---0--0-0-0-0-|-0--0-0-0-0--------------|
|-2--2-2-2---2--2-2-2-2-|-2--2-2-2-2----------0h2-|
|-3--3-3-3---3--3-3-3-3-|-3--3-3-3-3------0h2-----|
|-3--3-3-3---3--3-3-3-3-|-3--3-3-3-3--0h3---------|
     .   .      .   .        .
De man die zeker weet



Riff 2a:
G
|-3---3-3-3---3---3-3-3--|-3---3-3-3---3---3-3-3-3-|
|-3---3-3-3---3---3-3-3--|-3---3-3-3---3---3-3-3-3-|
|-0---0-0-0---0---0-0-0--|-0---0-0-0---0---0-0-0-0-|
|-0---0-0-0---0---0-0-0--|-0---0-0-0---0---0-0-0-0-|
|-2---2-2-2---2---2-2-2--|-2---2-2-2---2---2-2-2-2-|
|-3---3-3-3---3---3-3-3--|-3---3-3-3---3---3-3-3-3-|
Deze rijst kan niet mislukken

D/a
|-2---2-2-2---2---2-2-2--|-2---2-2-2---2---2-2-2-2-|
|-3---3-3-3---3---3-3-3--|-3---3-3-3---3---3-3-3-3-|
|-2---2-2-2---2---2-2-2--|-2---2-2-2---2---2-2-2-2-|
|-0---0-0-0---0---0-0-0--|-0---0-0-0---0---0-0-0-0-|
|-0---0-0-0---0---0-0-0--|-0---0-0-0---0---0-0-0-0-|
|------------------------|-------------------------|
Onze shampoo, nooit meer roos

C/g
|-0---0-0-0---0---0-0-0--|-0---0-0-0---0---0-0-0-0-|
|-1---1-1-1---1---1-1-1--|-1---1-1-1---1---1-1-1-1-|
|-0---0-0-0---0---0-0-0--|-0---0-0-0---0---0-0-0-0-|
|-2---2-2-2---2---2-2-2--|-2---2-2-2---2---2-2-2-2-|
|-3---3-3-3---3---3-3-3--|-3---3-3-3---3---3-3-3-3-|
|-3---3-3-3---3---3-3-3--|-3---3-3-3---3---3-3-3-3-|
Verzekering dekt alles

D/a
|-2---2-2-2---2---2-2-2--|-2---2-2-2---2---2-2-2-2-|
|-3---3-3-3---3---3-3-3--|-3---3-3-3---3---3-3-3-3-|
|-2---2-2-2---2---2-2-2--|-2---2-2-2---2---2-2-2-2-|
|-0---0-0-0---0---0-0-0--|-0---0-0-0---0---0-0-0-0-|
|-0---0-0-0---0---0-0-0--|-0---0-0-0---0---0-0-0-0-|
|------------------------|-------------------------|
Onbreekbaar, deze doos


Riff 2b:
G
|-3---3-3-3---3---3-3-3--|-3---3-3-3---3---3-3-3-3-|
|-3---3-3-3---3---3-3-3--|-3---3-3-3---3---3-3-3-3-|
|-0---0-0-0---0---0-0-0--|-0---0-0-0---0---0-0-0-0-|
|-0---0-0-0---0---0-0-0--|-0---0-0-0---0---0-0-0-0-|
|-2---2-2-2---2---2-2-2--|-2---2-2-2---2---2-2-2-2-|
|-3---3-3-3---3---3-3-3--|-3---3-3-3---3---3-3-3-3-|
      .   .       .   .        .   .        
Batterij, acht keer langer

D/a
|-2---2-2-2---2---2-2-2--|-2---2-2-2---2---2-2-2-2-|
|-3---3-3-3---3---3-3-3--|-3---3-3-3---3---3-3-3-3-|
|-2---2-2-2---2---2-2-2--|-2---2-2-2---2---2-2-2-2-|
|-0---0-0-0---0---0-0-0--|-0---0-0-0---0---0-0-0-0-|
|-0---0-0-0---0---0-0-0--|-0---0-0-0---0---0-0-0-0-|
|------------------------|-------------------------|
      .   .       .   .        .   .        
Pillen slikken, altijd blij

C/g
|-0---0-0-0---0---0-0-0--|-0---0-0-0---0---0-0-0-0-|
|-1---1-1-1---1---1-1-1--|-1---1-1-1---1---1-1-1-1-|
|-0---0-0-0---0---0-0-0--|-0---0-0-0---0---0-0-0-0-|
|-2---2-2-2---2---2-2-2--|-2---2-2-2---2---2-2-2-2-|
|-3---3-3-3---3---3-3-3--|-3---3-3-3---3---3-3-3-3-|
|-3---3-3-3---3---3-3-3--|-3---3-3-3---3---3-3-3-3-|
      .   .       .   .        .   .        
Vitaminen, langer leven

D/a
|-2---2-2-2---2---2-2-2--|-2---2-2-2---2---2-2-2-2-|
|-3---3-3-3---3---3-3-3--|-3---3-3-3---3---3-3-3-3-|
|-2---2-2-2---2---2-2-2--|-2---2-2-2---2---2-2-2-2-|
|-0---0-0-0---0---0-0-0--|-0---0-0-0---0---0-0-0-0-|
|-0---0-0-0---0---0-0-0--|-0---0-0-0---0---0-0-0-0-|
|------------------------|-------------------------|
      .   .       .   .        .   .        
Lekker geurtje in de rij


Riff 2c:
G
|-3-----------3----------|-3-----------3----------|
|-3-----------3----------|-3-----------3----------|
|-0---0-0-0---0---0-0-0--|-0---0-0-0---0---0-0-0--|
|-0---0-0-0---0---0-0-0--|-0---0-0-0---0---0-0-0--|
|-2---2-2-2---2---2-2-2--|-2---2-2-2---2---2-2-2--|
|-3---3-3-3---3---3-3-3--|-3---3-3-3---3---3-3-3--|
      .   .       .   .        .   .       .   .
Terrorist: “we moeten martelen

D/a
|-2-----------2----------|-2-----------2----------|
|-3---3-3-3---3---3-3-3--|-3---3-3-3---3---3-3-3--|
|-2---2-2-2---2---2-2-2--|-2---2-2-2---2---2-2-2--|
|-0---0-0-0---0---0-0-0--|-0---0-0-0---0---0-0-0--|
|-0---0-0-0---0---0-0-0--|-0---0-0-0---0---0-0-0--|
|------------------------|------------------------|
      .   .       .   .        .   .       .   .
Onze vlag; het beste land

C/g
|-0-----------0----------|-0-----------0----------|
|-1-----------1----------|-1-----------1----------|
|-0---0-0-0---0---0-0-0--|-0---0-0-0---0---0-0-0--|
|-2---2-2-2---2---2-2-2--|-2---2-2-2---2---2-2-2--|
|-3---3-3-3---3---3-3-3--|-3---3-3-3---3---3-3-3--|
|-3---3-3-3---3---3-3-3--|-3---3-3-3---3---3-3-3--|
      .   .       .   .        .   .       .   .
Onze jongens; altijd winnen

D/a
|-2-----------2----------|-2-----------2----------|
|-3---3-3-3---3---3-3-3--|-3---3-3-3---3---3-3-3--|
|-2---2-2-2---2---2-2-2--|-2---2-2-2---2---2-2-2--|
|-0---0-0-0---0---0-0-0--|-0---0-0-0---0---0-0-0--|
|-0---0-0-0---0---0-0-0--|-0---0-0-0---0---0-0-0--|
|------------------------|------------------------|
      .   .       .   .        .   .       .   .
God, onze kant, oh”


Riff 2d:
Cmaj7/g
|-0---0-0-0-0--0---0-0-0-0-|-0---0-0-0-0--0---0-0-0-0-|
|-0---0-0-0-0--0---0-0-0-0-|-0---0-0-0-0--0---0-0-0-0-|
|-0---0-0-0-0--0---0-0-0-0-|-0---0-0-0-0--0---0-0-0-0-|
|-2---2-2-2-2--2---2-2-2-2-|-2---2-2-2-2--2---2-2-2-2-|
|-3---3-3-3-3--3---3-3-3-3-|-3---3-3-3-3--3---3-3-3-3-|
|-3---3-3-3-3--3---3-3-3-3-|-3---3-3-3-3--3---3-3-3-3-|
Ik weet zeker dat ik gelijk heb

D
|-10----------------10---------------|-10----------------10---------------|
|-10----------------10---------------|-10----------------10---------------|
|-11---11-11-11-11--11---11-11-11-11-|-11---11-11-11-11--11---11-11-11-11-|
|-12---12-12-12-12--12---12-12-12-12-|-12---12-12-12-12--12---12-12-12-12-|
|-12---12-12-12-12--12---12-12-12-12-|-12---12-12-12-12--12---12-12-12-12-|
|-10---10-10-10-10--10---10-10-10-10-|-10---10-10-10-10--10---10-10-10-10-|
Dat er twijfel moet bestaan

Cmaj7/g
|-0------------0---0-0-0--|-0-----------0----------|
|-0------------0---0-0-0--|-0-----------0----------|
|-0---0-0-0-0--0---0-0-0--|-0---0-0-0---0----------|
|-2---2-2-2-2--2---2-2-2--|-2---2-2-2---2----------|
|-3---3-3-3-3--3---3-3-3--|-3---3-3-3---3----------|
|-3---3-3-3-3--3---3-3-3--|-3---3-3-3---3----------|
Altijd zeker is het kwaad

D
|-10--------------10--------------|-10--------------10--------------|
|-10--------------10--------------|-10--------------10--------------|
|-11---11-11-11---11---11-11-11---|-11---11-11-11---11---11-11-11---|
|-12---12-12-12---12---12-12-12---|-12---12-12-12---12---12-12-12---|
|-12---12-12-12---12---12-12-12---|-12---12-12-12---12---12-12-12---|
|-10---10-10-10---10---10-10-10---|-10---10-10-10---10---10-10-10---|
En daar twijfel ik niet aan



Fill 1
Em
|-----------------------|---------------------|
|-0----0-----0----0-----|-0-------------------|
|-0----0-----0----0---0-|-0----0-0---2--2--2--|
|-2----2-----2----2---2-|-2----2-2---0--0--0--|
|-2--2-2-2---2--2-2-2-2-|-2--2-2-2---2--------|
|-0--0-0-0---0--0-0-0-0-|-0--0-0-0---0--------|
     .   .      .            .

Em
|-----------------------|----------------------|
|-0----0-----0----0-----|-0--------------------|
|-0----0-----0----0---0-|-0----0-0-0--2--2--2--|
|-2----2-----2----2---2-|-2----2-2-2--0--0--0--|
|-2--2-2-2---2--2-2-2-2-|-2--2-2-2-2--2--------|
|-0--0-0-0---0--0-0-0-0-|-0--0-0-0-0--0--------|
     .   .      .            .



Riff 1a:
Em
|-----------------------|----------------------|
|-0----0-----0----0-----|-0--------------------|
|-0--0-0-0---0--0-0-0-0-|-0--0-0-0-0--0--2--0--|
|-2--2-2-2---2--2-2-2-2-|-2--2-2-2-2--2--------|
|-2--2-2-2---2--2-2-2-2-|-2--2-2-2-2--2--------|
|-0--0-0-0---0--0-0-0-0-|-0--0-0-0-0--0--------|
     .   .      .            .   .
Misschien ga ik in God geloven

C/g
|-----------------------|----------------------|
|-1----1-----1----1-----|-1--------------------|
|-0--0-0-0---0--0-0-0-0-|-0--0-0-0-0--0--2--0--|
|-2--2-2-2---2--2-2-2-2-|-2--2-2-2-2--2--------|
|-3--3-3-3---3--3-3-3-3-|-3--3-3-3-3--3--------|
|-3--3-3-3---3--3-3-3-3-|-3--3-3-3-3--3--------|
     .   .      .   .        .
Denk ik dat ik een alien ben

D/a
|-----------------------|-----------------------|
|-3----------3----------|-3----------3----3-----|
|-0----0-----0----0-----|-0----0-----0----0-----|
|-4--4-4-4---4--4-4-4---|-4--4-4-4---4--4-4-4---|
|-5--5-5-5---5--5-5-5---|-5--5-5-5---5--5-5-5---|
|-5--5-5-5---5--5-5-5---|-5--5-5-5---5--5-5-5---|
     .   .      .   .        .   .      .   .
Schrijf ik boeken over ufo's

C/g
|-----------------------|----------------------|
|-1----1-----1----1-----|-1--------------------|
|-0--0-0-0---0--0-0-0-0-|-0--0-0-0-0--0--2--0--|
|-2--2-2-2---2--2-2-2-2-|-2--2-2-2-2--2--------|
|-3--3-3-3---3--3-3-3-3-|-3--3-3-3-3--3--------|
|-3--3-3-3---3--3-3-3-3-|-3--3-3-3-3--3--------|
     .   .      .   .        .
En doe ik alles heel erg Zen


Riff 1e:
Em
|-----------------------|----------------------|
|-0----0-----0----0-----|-0--------------------|
|-0--0-0-0---0--0-0-0-0-|-0--0-0-0-0--0--2--0--|
|-2--2-2-2---2--2-2-2-2-|-2--2-2-2-2--2--------|
|-2--2-2-2---2--2-2-2-2-|-2--2-2-2-2--2--------|
|-0--0-0-0---0--0-0-0-0-|-0--0-0-0-0--0--------|
     .   .      .            .   .
Laat mijn hond uit in de bossen

C/g
|-----------------------|----------------------|
|-1----1-----1----1-----|-1--------------------|
|-0--0-0-0---0--0-0-0-0-|-0--0-0-0-0--0--2--0--|
|-2--2-2-2---2--2-2-2-2-|-2--2-2-2-2--2--------|
|-3--3-3-3---3--3-3-3-3-|-3--3-3-3-3--3--------|
|-3--3-3-3---3--3-3-3-3-|-3--3-3-3-3--3--------|
     .   .      .   .        .
Ruim zijn stront met liefde op

D/a
|-----------------------|-----------------------|
|-3----3-----3----3-----|-3----3-----3----3-----|
|-0--0-0-0---0--0-0-0---|-0--0-0-0---0--0-0-0---|
|-4--4-4-4---4--4-4-4---|-4--4-4-4---4--4-4-4---|
|-5--5-5-5---5--5-5-5---|-5--5-5-5---5--5-5-5---|
|-5--5-5-5---5--5-5-5---|-5--5-5-5---5--5-5-5---|
     .   .      .   .        .   .      .   .
Geloof dat stenen kunnen genezen

|-0----0-----0----0----|-0----0--0--0----0--0--|
|-1----1-----1----1----|-1----1--1--1----1--1--|
|-0----0-----0----0----|-0----0--0--0----0--0--|
|-2----2-----2----2----|-0----0--0--0----0--0--|
|-3----3-----3----3----|-3----3--3--3----3--3--|
|-3----3-----3----3----|-3----3--3--3----3--3--|
Leer ik rijtjes uit mijn kop



Riff 2a:
G
|-3-------3---3-------3--|-3---3-3-3---3---3-3-3-3-|
|-3-------3---3-------3--|-3---3-3-3---3---3-3-3-3-|
|-0---0-0-0---0---0-0-0--|-0---0-0-0---0---0-0-0-0-|
|-0---0-0-0---0---0-0-0--|-0---0-0-0---0---0-0-0-0-|
|-2---2-2-2---2---2-2-2--|-2---2-2-2---2---2-2-2-2-|
|-3---3-3-3---3---3-3-3--|-3---3-3-3---3---3-3-3-3-|
Doe wat horoscopen zeggen

D/a
|-2-----------2----------|-2-----------2---2-2-2-2-|
|-3---3-3-3---3---3-3-3--|-3---3-3-3---3---3-3-3-3-|
|-2---2-2-2---2---2-2-2--|-2---2-2-2---2---2-2-2-2-|
|-0---0-0-0---0---0-0-0--|-0---0-0-0---0---0-0-0-0-|
|-0---0-0-0---0---0-0-0--|-0---0-0-0---0---0-0-0-0-|
|------------------------|-------------------------|
Denk ik dat je vaker leeft

C/g
|-0---0-0-0---0---0-0-0--|-0---0-0-0---0---0-0-0-0-|
|-1---1-1-1---1---1-1-1--|-1---1-1-1---1---1-1-1-1-|
|-0---0-0-0---0---0-0-0--|-0---0-0-0---0---0-0-0-0-|
|-2---2-2-2---2---2-2-2--|-2---2-2-2---2---2-2-2-2-|
|-3---3-3-3---3---3-3-3--|-3---3-3-3---3---3-3-3-3-|
|-3---3-3-3---3---3-3-3--|-3---3-3-3---3---3-3-3-3-|
Drink ik niet Spa Blauw maar Lourdes

D/a
|-2---2-2-2---2---2-2-2--|-2---2-2-2---2---3-3-3-3-|
|-3---3-3-3---3---3-3-3--|-3---3-3-3---3---3-3-3-3-|
|-2---2-2-2---2---2-2-2--|-2---2-2-2---2---2-2-2-2-|
|-0---0-0-0---0---0-0-0--|-0---0-0-0---0---0-0-0-0-|
|-0---0-0-0---0---0-0-0--|-0---0-0-0---0---0-0-0-0-|
|------------------------|-------------------------|
      .   .       .   .        .   .
Bid dat Allah mij vergeeft


Riff 2b:
G
|-3-------3---3-------3--|-3---3-3-3---3---3-3-3-3-|
|-3-------3---3-------3--|-3---3-3-3---3---3-3-3-3-|
|-0---0-0-0---0---0-0-0--|-0---0-0-0---0---0-0-0-0-|
|-0---0-0-0---0---0-0-0--|-0---0-0-0---0---0-0-0-0-|
|-2---2-2-2---2---2-2-2--|-2---2-2-2---2---2-2-2-2-|
|-3---3-3-3---3---3-3-3--|-3---3-3-3---3---3-3-3-3-|
Mail ik foto's van mijn baby

D/a
|-2-----------2----------|-2-----------2---2-2-2-2-|
|-3---3-3-3---3---3-3-3--|-3---3-3-3---3---3-3-3-3-|
|-2---2-2-2---2---2-2-2--|-2---2-2-2---2---2-2-2-2-|
|-0---0-0-0---0---0-0-0--|-0---0-0-0---0---0-0-0-0-|
|-0---0-0-0---0---0-0-0--|-0---0-0-0---0---0-0-0-0-|
|------------------------|-------------------------|
Rijm ik dat ze teentjes heeft

C/g
|-0---0-0-0---0---0-0-0--|-0---0-0-0---0---0-0-0-0-|
|-1---1-1-1---1---1-1-1--|-1---1-1-1---1---1-1-1-1-|
|-0---0-0-0---0---0-0-0--|-0---0-0-0---0---0-0-0-0-|
|-2---2-2-2---2---2-2-2--|-2---2-2-2---2---2-2-2-2-|
|-3---3-3-3---3---3-3-3--|-3---3-3-3---3---3-3-3-3-|
|-3---3-3-3---3---3-3-3--|-3---3-3-3---3---3-3-3-3-|
Ga ik wekelijks naar de hoeren

D/a
|-2---2-2-2---2---2-2-2--|-2---2-2-2---2---2-2-2-2-|
|-3---3-3-3---3---3-3-3--|-3---3-3-3---3---3-3-3-3-|
|-2---2-2-2---2---2-2-2--|-2---2-2-2---2---2-2-2-2-|
|-0---0-0-0---0---0-0-0--|-0---0-0-0---0---0-0-0-0-|
|-0---0-0-0---0---0-0-0--|-0---0-0-0---0---0-0-0-0-|
|------------------------|-------------------------|
En is carnaval mijn feest


Riff 2d:
Cmaj7/g
|-0---0-0-0-0--0---0-0-0-0-|-0---0-0-0-0--0---0-0-0-0-|
|-0---0-0-0-0--0---0-0-0-0-|-0---0-0-0-0--0---0-0-0-0-|
|-0---0-0-0-0--0---0-0-0-0-|-0---0-0-0-0--0---0-0-0-0-|
|-2---2-2-2-2--2---2-2-2-2-|-2---2-2-2-2--2---2-2-2-2-|
|-3---3-3-3-3--3---3-3-3-3-|-3---3-3-3-3--3---3-3-3-3-|
|-3---3-3-3-3--3---3-3-3-3-|-3---3-3-3-3--3---3-3-3-3-|
Ik weet zeker dat ik gelijk heb

D
|-10----------------10---------------|-10----------------10---------------|
|-10----------------10---------------|-10----------------10---------------|
|-11---11-11-11-11--11---11-11-11-11-|-11---11-11-11-11--11---11-11-11-11-|
|-12---12-12-12-12--12---12-12-12-12-|-12---12-12-12-12--12---12-12-12-12-|
|-12---12-12-12-12--12---12-12-12-12-|-12---12-12-12-12--12---12-12-12-12-|
|-10---10-10-10-10--10---10-10-10-10-|-10---10-10-10-10--10---10-10-10-10-|
Dat er twijfel moet bestaan

Cmaj7/g
|-0------------0---0-0-0--|-0-----------0----------|
|-0------------0---0-0-0--|-0-----------0----------|
|-0---0-0-0-0--0---0-0-0--|-0---0-0-0---0----------|
|-2---2-2-2-2--2---2-2-2--|-2---2-2-2---2----------|
|-3---3-3-3-3--3---3-3-3--|-3---3-3-3---3----------|
|-3---3-3-3-3--3---3-3-3--|-3---3-3-3---3----------|
Altijd zeker is het kwaad

D
|-10--------------10--------------|-10--------------10--------------|
|-10--------------10--------------|-10--------------10--------------|
|-11---11-11-11---11---11-11-11---|-11---11-11-11---11---11-11-11---|
|-12---12-12-12---12---12-12-12---|-12---12-12-12---12---12-12-12---|
|-12---12-12-12---12---12-12-12---|-12---12-12-12---12---12-12-12---|
|-10---10-10-10---10---10-10-10---|-10---10-10-10---10---10-10-10---|
En daar twijfel ik niet aan



Fill 2:
Em
|-----------------------|---------------------|
|-0----------0----------|-0-------------------|
|-0--0-0-0---0--0-0-0-0-|-0--0-0-0---2--2--2--|
|-2--2-2-2---2--2-2-2-2-|-2--2-2-2---0--0--0--|
|-2--2-2-2---2--2-2-2-2-|-2--2-2-2---2--------|
|-0--0-0-0---0--0-0-0-0-|-0--0-0-0---0--------|


Em
|-----------------------|--------------------------|-0-----------|
|-0----0-----0----0-----|-0------------------------|--0----------|
|-0--0-0-0---0--0-0-0-0-|-0--0-0-0-0---------------|---0---------|
|-2--2-2-2---2--2-2-2-2-|-2--2-2-2-2----------0h2--|----2--------|
|-2--2-2-2---2--2-2-2-2-|-2--2-2-2-2------0h2------|-----2-------|
|-0--0-0-0---0--0-0-0-0-|-0--0-0-0-0--0h3----------|------0------|



Altijd zeker is het kwaad


In de Koran daar leest een moslim
wat voor de christen in de Bijbel staat
En de Jood plundert de Thora
Palestijn heeft de Jihad

Ook al zijn ze zo verschillend
Eén ding wat hen samen smeedt
Priester, rabbijn en moellah
Weet dat hij het zeker weet
Hij het zeker weet

Je kan geen uitzonderingen maken
Gelijke monnik, gelijke kap
We gaan allemaal of niemand
Dit is geen onderwerp voor een grap

Tot hier en nooit meer verder
Dit is de grens daar is de meet
Grote woorden uitgesproken
Door de man die zeker weet
De man die zeker weet

Deze rijst kan niet mislukken
Onze shampoo, nooit meer roos
Verzekering dekt alles
Onbreekbaar, deze doos

Batterij, acht keer langer
Pillen slikken, altijd blij
Vitaminen, langer leven
Lekker geurtje, in de rij

Terrorist: “we moeten martelen
Onze vlag; het beste land
Onze jongens; altijd winnen
God, onze kant”

Ik weet zeker dat ik gelijk heb
Dat er twijfel moet bestaan
Altijd zeker is het kwaad
En daar twijfel ik niet aan


Misschien ga ik in God geloven
Denk ik dat ik een alien ben
Schrijf ik boeken over ufo's
En doe ik alles heel erg Zen

Laat mijn hond uit in de bossen
Ruim zijn stront met liefde op
Geloof dat stenen kunnen genezen
Leer ik rijtjes uit mijn kop


Doe wat horoscopen zeggen
Denk ik dat je vaker leeft
Drink ik niet Spa Blauw maar Lourdes
Bid dat Allah mij vergeeft

Mail ik foto's van mijn baby
Rijm ik dat ze teentjes heeft
Ga ik wekelijks naar de hoeren
En is carnaval mijn feest


Ik weet zeker dat ik gelijk heb
Dat er twijfel moet bestaan
Altijd zeker is het kwaad
En daar twijfel ik niet aan
Добавлено: 31.05.2012
Вам также может быть интересно:
Другие материалы по этой песне:
  • Аккорды и текст

Страница создана 31.05.2012
http://primanota.ru/lebbis/altijd-zeker-is-het-kwaad-chords.htm
Привет, Гость.
Предлагаем пройти революционный курс по гитаре.
Подарок от PrimaNota.Ru, забирай!