PrimaNota.ru - самый крупный в мире бесплатный архив песенных текстов, аккордов, табулатур и нот


Leb I Sol - Pesna Za Prijatelot - таба, видео

Регистрация Запомнить меня
Войти через:  Facebook Google Twitter Vk Yandex Mail.ru

Leb I Sol - Pesna Za Prijatelot - таба, видео

Печатать
Просмотров: 126
intro: A A7 D Dm X4

A          D    A         D
Odavna te nema, prijatelu moj
A           D         G       A
znam deca, familija, brkanje,rabota
A            D        A        D
Ni kafe ni muabet ni sredba slucajna
A         D     G        A
Druzbata nasa kade li zamina [fill1]

D               G
Gledam stari fotografii
D               G
mladi sme i nasmeani
D            G
So casi vo racete
E           A(XII)
Pravime [fill2], ziveli[fill3]

A          D
Vo istite devojki
A          D
sme bile vljubeni
A           D
vo zelbi, iluzii
G            A
sme bile izgubeni [fill1]

D               G
Ploci, knjigi, casopisi
D          G
sme razmenuvale
D               G
Patuvanja razglednici
G         A
sme[fill2] pisuvale[fill3]

Hm      F#m
Trcame brzame,
   E        Hm
i nazad ne gledame
Hm       F#m         E
A mozebi celta odamna
           H
sme ja pominale[fill4]

Trcame brzame,
za cekor da fatime
Vreme da ne ne pregazi,
za da ne ostarime

solo: A A7 D Dm X4

Ne, ne te obvinuvam
imam razbiranje
Ne sum ti ni jas bas
cveke za mirisanje

I mene me stignale
Problemi, godini
I ovie vreminja ludi,
Gavol da gi nosi

Trcame brzame,
i nazad ne gledame
A mozebi celta odamna
sme ja pominale

Trcame brzame,
za cekor da fatime
Vreme da ne ne pregazi,
za da ne ostarime

solo: A A7 D Dm X4


fill1:
---------------------------|
-----10-10-12-10h12p10-----|
--/11----------------------|
---------------------------|
---------------------------|
---------------------------|

fill2:                                        fill3:
--------10-------10-------10-------12- ------------12--------12---------12-|
-13b(15)--13b(15)--13b(15)--(15)r14--- --15-15b(17)---15b(17)----15b(17)---|
-------------------------------------- ------------------------------------|
-------------------------------------- ------------------------------------|
-------------------------------------- ------------------------------------|
-------------------------------------- ------------------------------------|

---------14\---------------------------------------------------------------|
-(17)r16-------------------------------------------------------------------|
---------------------------------------------------------------------------|
---------------------------------------------------------------------------|
---------------------------------------------------------------------------|
---------------------------------------------------------------------------|

fill4:
--7------------------------|
----10-9-7-----------------|
---------------------------|
---------------------------|
---------------------------|
---------------------------|
Добавлено: 01.03.2012
Другие материалы по этой песне:
  • Аккорды и текст

Страница создана 01.03.2012
http://primanota.ru/leb-i-sol/pesna-za-prijatelot-chords.htm
Привет, Гость.
Предлагаем пройти революционный курс по гитаре.
Подарок от PrimaNota.Ru, забирай!