PrimaNota.ru - самый крупный в мире бесплатный архив песенных текстов, аккордов, табулатур и нот


Leb I Sol - Kao Kakao - таба, видео

Регистрация Запомнить меня
Войти через:  Facebook Google Twitter Vk Yandex Mail.ru

Leb I Sol - Kao Kakao - таба, видео

Печатать
Просмотров: 266
ntro (otprilike ovako):
------------------------------------------|
---------------------------N.H.-tremolo---|
----------------------------5vvv\---------|
--x/-----/-x--------x-\-x/----------------|
--x/-----/-x--------x-\-x/----------------|
--x/-(2)-/--x--(10)-x-\-x/----------------|

riff:
---|-----------------------|----------------|
---|-----------------------|----------------|
---|-------------------2---|-------------2--|
---|--------2--2-0-----2---|-------------2--|
---|--------2------4-2-0---|-------------0--|
-0-|2h3p2h3-0------------0-|-0-2h3p2h3------|
            4x

interlude(2:37):
  N.H.
--12vvvvvvvvvvvvvvvvvvvvvvvvvvvvvvvvvvvvvvvv|
--------------------------------------------|
--------------------------------------------|
-----5xh7x------5xh7x-----------------------|
----------0x-0x------0x-0x------------------|
--------------------------------------------|
            4x

solo:
--------------7-----9b10v-10r9-7-9--------------7-----9b10v-10r9-7-9-9/12-9-9-|
----7-10v--10---10---------------------10-10-10---10--------------------------|
-/9---------------------------------/9----------------------------------------|
------------------------------------------------------------------------------|
------------------------------------------------------------------------------|
------------------------------------------------------------------------------|

-/12-12-12-12-14-12-16b17-17v-/21-19-17-17-19-21-22-22b24-22b24-22-21-19h21p19-|
-------------------------------------------------------------------------------|
-------------------------------------------------------------------------------|
-------------------------------------------------------------------------------|
-------------------------------------------------------------------------------|
-------------------------------------------------------------------------------|

-17-----/20-17-/20-17-16b17vvvvvv-16b17--------|
-----------------------------------------------|
-----------------------------------------------|
-----------------------------------------------|
-----------------------------------------------|
-----------------------------------------------|
      Sve je............................mutno


end:
  A.H.
--9---b(22)r---------------|
---------------------------|
---------------------------|
---------------------------|
---------------------------|
--------------0h2b5r2\0----|

A          Asus4  A/E Asus4
Ja sam kao frajer
A          Asus4  A/E Asus4
Ti si kao dama
A          Asus4  A/E Asus4
Mi smo kao par
A          Asus4  A/E Asus4
Mi smo kao dobar par
G   D  E D
Sve je kao...

Deca kao ne znaju
Starci kao mudruju
Vojnici kao budni
Zene kao verne
Sve je mutno...

ref:
E            D
Kao... Kao kakao
E            D
Kao... Kao kakao
E            D
Kao... Kao kakao
E                    D
Ceo svet je... Kao kakao

Mi smo kao zivi
Mi smo kao zajedno
Mi se kao volimo
I kao nesto sviramo
Sve je mutno...

< ref>
< solo: A Asus4 A/E Asus4  4x, A>

G   D  E  D
Sve je mutno...

< ref>

!! Asus4   x02230 !!
!! A/E     x02250 !!
Добавлено: 21.07.2012
Другие материалы по этой песне:
  • Аккорды и текст

Страница создана 21.07.2012
http://primanota.ru/leb-i-sol/kao-kakao-chords.htm
Привет, Гость.
Предлагаем пройти революционный курс по гитаре.
Подарок от PrimaNota.Ru, забирай!