PrimaNota.ru - самый крупный в мире бесплатный архив песенных текстов, аккордов, табулатур и нот


Leb I Sol - Gipsy Song - таба, видео

Регистрация Запомнить меня
Войти через:  Facebook Google Twitter Vk Yandex Mail.ru

Leb I Sol - Gipsy Song - таба, видео

Печатать
Просмотров: 118
e|--7-------10-8-7-6-7----------------|
H|----8-7--------------8-7-------7-8--|
G|--------9----------------9-8-9------|
D|------------------------------------|
A|------------------------------------|
E|------------------------------------|


e|--7-------10-8-7-6-7-6-7-6-7-6-7-6--|
H|----8-7-----------------------------|
G|--------9---------------------------|
D|------------------------------------|
A|------------------------------------|
E|------------------------------------|
Добавлено: 15.10.2013
Другие материалы по этой песне:
  • Аккорды и текст

Страница создана 15.10.2013
http://primanota.ru/leb-i-sol/gipsy-song-chords.htm
Привет, Гость.
Предлагаем пройти революционный курс по гитаре.
Подарок от PrimaNota.Ru, забирай!