PrimaNota.ru - самый крупный в мире бесплатный архив песенных текстов, аккордов, табулатур и нот


Leb I Sol - Gajdarsko Oro - таба, видео

Регистрация Запомнить меня
Войти через:  Facebook Google Twitter Vk Yandex Mail.ru

Leb I Sol - Gajdarsko Oro - таба, видео

Печатать
Просмотров: 116
Verse 1
E------------------------------------------|
H------------------------------------------|
G------------------------------------------|
D--------7--7-10-9-7-9--------7--7-9-7--7--|
A--7-9-10-10------------7-9-10-10-----10---|
E------------------------------------------|

Verse 2
E------------------------------------------|
H------------------------------------------|
G--7-5-7-7-5-7-7-5-7-7-5-7-9-7-5-----------|
D-------------------------------9-7-5-7-7--|
A------------------------------------------|
E------------------------------------------|

transition 1
E-------------------------------------|
H-------------------------------------|
G---8h9-8h9-8h9-8h9-8h9-8h9-8h9-8h9---|
D--7---7---7---7---7---7---7---7------|
A-------------------------------------|
E-------------------------------------|

Verse 3
E------------------------------------------------|
H---10-8--------------10-8-----------------------|
G--9----11-9-8--8h9--9----11-9-8h9p8-------------|
D-------------10--------------------10-9h10p9-7--|
A------------------------------------------------|
E------------------------------------------------|

Verse 4
E-------------------------------------|
H---8-7---------------8-7-------------|
G--9---9-8------8h9--9---9-8----------|
D---------10-9-7------------10-9-7-7--|
A-------------------------------------|
E-------------------------------------|

transition 2
E--------------------------------------------------|
H--------------------------------------------------|
G--4-4--4-4-4--4-4--4-4-4--4-4--4-4-4--4-4--4-4-4--|
D--4-4--4-4-4--4-4--4-4-4--4-4--4-4-4--4-4--4-4-4--|
A--------------------------------------------------|
E--------------------------------------------------|

E-----------------------------------------------|
H-----------------------------------------------|
G--4-4--4-4-4--4-4--4-4-4--4-4-4-4-4-4-4-4-4-4--|
D--4-4--4-4-4--4-4--4-4-4--4-4-4-4-4-4-4-4-4-4--|
A-----------------------------------------------|
E-----------------------------------------------|

Verse 5
E--------------------------------------|
H-----5-4-------5-4-------5-4-------7--|
G--4-4---5-4-4-4---5-4-4-4---5-4-4-4---|
D--------------------------------------|
A--------------------------------------|
E--------------------------------------|

E--------------------------------------|
H-----5-4-------5-4-------5-4----------|
G--4-4---5-4-4-4---5-4-4-4---5-4--4-4--|
D--------------------------------------|
A--------------------------------------|
E--------------------------------------|

E---------------------------------------|
H------5-4-------5-4-------5-4-------7--|
G---4-4---5-4-4-4---5-4-4-4---5-4-4-4---|
D--4------------------------------------|
A---------------------------------------|
E---------------------------------------|

E--------------------------------------|
H-----5-4-------5-4-------5-4----------|
G--4-4---5-4-4-4---5-4-4-4---5-4--4-4--|
D--------------------------------------|
A--------------------------------------|
E--------------------------------------|
Добавлено: 16.07.2012
Другие материалы по этой песне:
  • Аккорды и текст

Страница создана 16.07.2012
http://primanota.ru/leb-i-sol/gajdarsko-oro-chords.htm
Привет, Гость.
Предлагаем пройти революционный курс по гитаре.
Подарок от PrimaNota.Ru, забирай!