PrimaNota.ru - самый крупный в мире бесплатный архив песенных текстов, аккордов, табулатур и нот


Leaves - Hey Joe - аккорды и текст, таба, видео

Регистрация Запомнить меня
Войти через:  Facebook Google Twitter Vk Yandex Mail.ru

Leaves - Hey Joe - аккорды и текст, таба, видео

Печатать
Просмотров: 156
Hey Joe
Leaves



Date: Thu, 14 Nov 1996 15:28:21 -0500
From: Andrew Rogers 
Subject: ./l/leaves/hey_joe.crd

As far as anyone can tell (cf. _Goldmine_ #195), the Leaves were the first
to record this much-covered 60's icon (as 'Hey Joe, Where You Gonna Go' in
1965).  The hit version (Mira 222; #31 in July, 1966) presented here is a
subsequent re-recording.  --AWR


                               Hey Joe
                            (Billy Roberts)

Intro:

	(guitar, 4X; fuzz guitar and bass enter 2nd time, drums 3rd)

	(A)
	 v   v   v   v     v   v   v   v
	-0---0---0-0---0-|-0---0-0---0---0-
	-2---2---0-2---0-|-3---2-0---2---0-
	-2---2---2-2---2-|-2---2-2---2---2-
	-2---2---2-2---2-|-3---2-2---2---2-
	-----------------|-----------------
	-----------------|-----------------

Post-intro:

	(w/lead guitar, 2X):

	F   C    G   D    A
	/ / / /  / / / /  / / / /  / / / /

Verse 1:

	 F     C               G               D           A
	Hey  ..
	I ..
	I'm ..
	I ..

Verse 2:

Link:

	 F       C         G       D         A
	 v   v   v   v     v   v   v   v     v
	-----------------|-----------------|---
	-----------------|-----------------|---
	-----------------|-----------------|---
	-----------------|-----------------|---
	---0-1-2-3-------|---2-3-4-5-------|-0-
	-1---------0-1-2-|-3---------2-3-4-|---

Instrumental break:

	 D                 A
	 / / / /  / / / /  / / / /  / / / /

	 D                 B      
	 / / / /  / / / /  / / / /

	 E
	 / / / /  / / / /  / / / /  / / / /

	(E)                A
	 / / / /  / / / /  /

[repeat intro]

Verse 3 [note extra line]:


[repeat link]

[repeat intro; end cold on A]


-- another ace 60's tab from Andrew Rogers


Добавлено: 25.01.2014
Другие материалы по этой песне:
  • Аккорды и текст

Страница создана 04.04.2012
http://primanota.ru/leaves/hey-joe-chords.htm
Привет, Гость.
Предлагаем пройти революционный курс по гитаре.
Подарок от PrimaNota.Ru, забирай!