PrimaNota.ru - самый крупный в мире бесплатный архив песенных текстов, аккордов, табулатур и нот


Leaves Eyes - My Destiny - текст песни, таба, видео

Регистрация Запомнить меня
Войти через:  Facebook Google Twitter Vk Yandex Mail.ru

Leaves Eyes - My Destiny - текст песни, таба, видео

Печатать
Просмотров: 246
-------------------------------------------------------------------------------
                             My Destiny - Leaves' Eyes
-------------------------------------------------------------------------------
Tabbed by: Max  
Email: flammadiddle@hotmail.co.uk
 
Tuning: Drop D
Time Signature: 4/4

| /  slide up
| \  slide down
| h  hammer-on
| p  pull-off
| ~  vibrato
| +  harmonic
| x  Mute note
| *  Mute strings (not palm mute, just stop the note)
| .  Palm mute

Intro:

Both Guitars:

e|---------|-----------------------------|------------------------------|
B|---------|-----------------------------|------------------------------|
G|---------|-----------------------------|------------------------------|
D|-x-x-x-x-|0-0*--0-0*0-0-0-0h2-2-2-2----|-0-0*--0-0*3-3-3-3p2-2-2------|
A|-x-x-x-x-|0-0*--0-0*----------------3--|-0-0-----------------------3--|
D|-x-x-x-x-|0-0*--0-0*-------------------|-0-0--------------------------|

e|-----------------------------|-----------------------------------------------|
B|-----------------------------|-------------------------------Let ring--------|
G|-----------------------------|-3----3----5-----------------------------------|
D|0-0*--0-0*0-0-0-0h2-2-2-2----|-3----3----3-----------------------------------|
A|0-0*--0-0*----------------3--|-1----1----1-----------------------------------|
D|0-0*--0-0*-------------------|-----------------------------------------------|

Guitar 1:

e|-----------------------------|------------------------------|
B|-----------------------------|------------------------------|
G|-----------------------------|------------------------------|
D|0-0*--0-0*0-0-0-0h2-2-2-2----|-0-0*--0-0*3-3-3-3p2-2-2------|
A|0-0*--0-0*----------------3--|-0-0*--0-0*----------------3--|
D|0-0*--0-0*-------------------|-0-0*--0-0*-------------------|

Guitar 2:

e|-----------------------------|------------------------------|
B|-----------------------------|------------------------------|
G|-----------------------------|------------------------------|
D|0-0*--0-0*3-3-3-3h5-5-5-5-2--|-0-0*--0-0*7-7-7-7p5-5-5------|
A|0-0*--0-0*-------------------|-0-0*--0-0*---------------7---|
D|0-0*--0-0*-------------------|-0-0*--0-0*-------------------|

Guitar 1:

e|-----------------------------|------------------------------|
B|-----------------------------|------------------------------|
G|-----------------------------|-3---3---5--------------------|
D|0-0*--0-0*0-0-0-0h2-2-2-2----|-3---3---3--------------------|
A|0-0*--0-0*----------------3--|-1---1---1--------------------|
D|0-0*--0-0*-------------------|------------------------------|

Guitar 2:

e|-----------------------------|------------------------------|
B|-----------------------------|------------------------------|
G|-----------------------------|-3----------------------------|
D|0-0*--0-0*3-3-3-3h5-5-5-5-2--|-3----------------------------|
A|0-0*--0-0*-------------------|-1----------------------------|
D|0-0*--0-0*-------------------|------------------------------|

Verse:

Both Guitars:

e|-------------------------------|--------------------------------|
B|-------------------------------|--------------------------------|
G|-------------------------------|--------------------------------|
D|0-0*--0-0*0-0-0-0h2-2-2-2------|-0-0*--0-0*3-3-3-3p2-2-2--------|
A|0-0*--0-0*----------------3----|-0-0*--0-0*------------------3--|
D|0-0*--0-0*---------------------|-0-0*--0-0*---------------------|

e|-------------------------------|--------------------------------|
B|-------------------------------|--------------------------------|
G|-------------------------------|-3----3----5--------------------|
D|0-0*--0-0*0-0-0-0h2-2-2-2------|-3----3----3--------------------|
A|0-0*--0-0*----------------3----|-1----1----1--------------------|
D|0-0*--0-0*---------------------|--------------------------------|

Guitar 1:

e|-------------------------------|--------------------------------|
B|-------------------------------|--------------------------------|
G|-------------------------------|--------------------------------|
D|0-0*--0-0*0-0-0-0h2-2-2-2------|-0-0*--0-0*3-3-3-3p2-2-2--------|
A|0-0*--0-0*----------------3----|-0-0*--0-0*----------------3----|
D|0-0*--0-0*---------------------|-0-0*--0-0*---------------------|

Guitar 2:

e|-------------------------------|--------------------------------|
B|-------------------------------|--------------------------------|
G|-------------------------------|--------------------------------|
D|0-0*--0-0*3-3-3-3h5-5-5-5-2----|-0-0*--0-0*7-7-7-7p5-5-5--------|
A|0-0*--0-0*---------------------|-0-0*--0-0*---------------7-----|
D|0-0*--0-0*---------------------|-0-0*--0-0*---------------------|

Guitar 1:

e|-------------------------------|--------------------------------|
B|-------------------------------|--------------------------------|
G|-------------------------------|-3---3---5----------------------|
D|0-0*--0-0*0-0-0-0h2-2-2-2------|-3---3---3----------------------|
A|0-0*--0-0*----------------3----|-1---1---1----------------------|
D|0-0*--0-0*---------------------|--------------------------------|

Guitar 2:

e|-------------------------------|--------------------------------|
B|-------------------------------|--------------------------------|
G|-------------------------------|-3------------------------------|
D|0-0*--0-0*3-3-3-3h5-5-5-5-2----|-3------------------------------|
A|0-0*--0-0*---------------------|-1------------------------------|
D|0-0*--0-0*---------------------|--------------------------------|

Chorus (something like this, i'm not even sure if it's the guitars)

e|--------------------------------|--------------------------------|
B|--------------------------------|--------------------------------|
G|--------------------------------|--------------------------------|
D|7---------------9---------------|-8-------------0----------------|
A|5---------------7---------------|-8-------------0----------------|
D|----------------9---------------|-8-------------0----------------|

e|--------------------------------|--------------------------------|
B|--------------------------------|--------------------------------|
G|3---------------5---------------|-7------------------------------|
D|3---------------3---------------|-7------------------------------|
A|1---------------3---------------|-5------------------------------|
D|--------------------------------|--------------------------------|

Then this:

e|--------------------------------|--------------------------------|
B|--------------------------------|--------------------------------|
G|--------------------------------|--------------------------------|
D|0-0-0-0-0-0-0-0-0-0-0-0-0-0-0-0-|0-0-0-0-0-0-0-0-0-0-0-0-0-0-0-0-|
A|--------------------------------|--------------------------------|
D|--------------------------------|--------------------------------|
  . . . . . . . . . . . . . . . .  . . . . . . . . . . . . . . . . 

Verse

Chorus x 2

Then:

e|--------------------------------|--------------------------------|
B|--------------------------------|--------------------------------|
G|--------------------------------|--------------------------------|
D|-0-0*--0-0*---------------------|-0-0*--0-0----------------------|
A|-0-0*--0-0*---------------------|-0-0*--0-0---------3------------|
D|-0-0*--0-0*---------------------|-0-0*--0-0---------3------------|

e|--------------------------------|--------------------------------|
B|--------------------------------|--------------------------------|
G|--------------------------------|--------------------------------|
D|-0-0*--0-0*---------------------|-0-0*--0-0----------------------|
A|-0-0*--0-0*---------------------|-0-0*--0-0---------3------------|
D|-0-0*--0-0*---------------------|-0-0*--0-0---------3------------|

e|--------------------------------|--------------------------------|
B|--------------------------------|--------------------------------|
G|--------------------------------|--------------------------------|
D|-0-0---0-0---0-0---0-0---0---0--|-0------------------------------|
A|-0-0---0-0---0-0---0-0---0---0--|-0------------------------------|
D|-0-0---0-0---0-0---0-0---0---0--|-0------------------------------|
   . .   . .   . .   . .   .   .    

Chorus

The end :)
===============================================================================
Добавлено: 31.07.2012
Другие материалы по этой песне:
  • Аккорды и текст

Страница создана 31.07.2012
http://primanota.ru/leaves-eyes/my-destiny-chords.htm
Привет, Гость.
Предлагаем пройти революционный курс по гитаре.
Подарок от PrimaNota.Ru, забирай!