PrimaNota.ru - самый крупный в мире бесплатный архив песенных текстов, аккордов, табулатур и нот


LeATHERMØUTH - Your Friends Are Full Of Shit - таба, видео

Регистрация Запомнить меня
Войти через:  Facebook Google Twitter Vk Yandex Mail.ru

LeATHERMØUTH - Your Friends Are Full Of Shit - таба, видео

Печатать
Просмотров: 54
Your Friends Are Full Of Shit
LeATHERMOUTH
jjjddd

Drop C

D|-----------------------------------------------|
A|-----------------------------------------------|
F|-----------------------------------------------|
C|-7-0-0-0--0-7-0--0-7-0--0-7-0-0-0--0-7-0-0-11\-|x4
G|-7-0-0-0--0-7-0--0-7-0--0-7-0-0-0--0-7-0-0-11\-|
C|-7-0-0-0--0-7-0--0-7-0--0-7-0-0-0--0-7-0-0-11\-|

D|------------------------------------|
A|------------------------------------|
F|-6-----7----10----6-----7----10~~~--|
C|---x16---x8---x8----x16---x8--------|
G|-4-----5----8-----4-----5----8~~~~--|
C|------------------------------------|

D|---------------------------------|
A|---------------------------------|
F|---------------------------------|
C|-0~~~~~------------------------0-|
G|-0~~~~~------------------------0-|
C|-0~~~~~------------------------0-|
     "keeping this shit alive..."

D|-----------------------------------------------|
A|-----------------------------------------------|
F|-----------------------------------------------|
C|-7-0-0-0--0-7-0--0-7-0--0-7-0-0-0--0-7-0-0-11\-|x4
G|-7-0-0-0--0-7-0--0-7-0--0-7-0-0-0--0-7-0-0-11\-|
C|-7-0-0-0--0-7-0--0-7-0--0-7-0-0-0--0-7-0-0-11\-|

D|------------------------------------|
A|------------------------------------|
F|-6-----7----10----6-----7----10~~~--|
C|---x16---x8---x8----x16---x8--------|
G|-4-----5----8-----4-----5----8~~~~--|
C|------------------------------------|

D|-----------------------------------------------|
A|-----------------------------------------------|
F|-----------------------------------------------|
C|-7p0~~~~------------7p0-7p0-7p0----7p0--11-11\-|x2
G|-7p0~~~~------------7p0-7p0-7p0----7p0--11-11\-|
C|-7p0~~~~------------7p0-7p0-7p0----7p0--11-11\-|

D|-----------------------------------------------|
A|-----------------------------------------------|
F|-----------------------------------------------|
C|-7-0-0-0--0-7-0--0-7-0--0-7-0-0-0--0-7-0-0-11\-|x2
G|-7-0-0-0--0-7-0--0-7-0--0-7-0-0-0--0-7-0-0-11\-|
C|-7-0-0-0--0-7-0--0-7-0--0-7-0-0-0--0-7-0-0-11\-|


D|---------------------------------------|
A|---------------------------------------|
F|---------------------------------------|
C|-0~~~~~~~----------------------6-5-3-1-|x2
G|-0~~~~~~~----------------------6-5-3-1-|
C|-0~~~~~~~----------------------6-5-3-1-|

D|---------------------------------------|
A|---------------------------------------|
F|---------------------------------------|
C|-0-----------------------------6-5-3-1-|x2
G|-0-x24-------------------------6-5-3-1-|
C|-0-----------------------------6-5-3-1-|
   *
D|-----------------------|
A|-----------------------|
F|-----------------------|
C|-0-------------6-5-3-1-|x3
G|-0-x8----------6-5-3-1-|
C|-0-------------6-5-3-1-|
   *
D|-----------------|
A|-----------------|
F|-----------------|
C|-0-0-0-0-0-0-0-0-|
G|-0-0-0-0-0-0-0-0-|
C|-0-0-0-0-0-0-0-0-|
   * * * * * * * *
Добавлено: 12.04.2016
Другие материалы по этой песне:
  • Аккорды и текст

Страница создана 12.04.2016
http://primanota.ru/leathermuth/your-friends-are-full-of-shit-chords.htm
Привет, Гость.
Предлагаем пройти революционный курс по гитаре.
Подарок от PrimaNota.Ru, забирай!