PrimaNota.ru - самый крупный в мире бесплатный архив песенных текстов, аккордов, табулатур и нот


LeATHERMØUTH - My Lovenote Has Gone Flat - таба, видео

Регистрация Запомнить меня
Войти через:  Facebook Google Twitter Vk Yandex Mail.ru

LeATHERMØUTH - My Lovenote Has Gone Flat - таба, видео

Печатать
Просмотров: 54
My Lovenote Has Gone Flat
LeATHERMOUTH
jjjddd

Drop C

D|-------------------------------------------------|
A|-------------------------------------------------|
F|-------------------------------------------------|
C|-6--6-6--6-6--6--6-6--6-6--6--6-6--6-6--4-4--7-7-|x8
G|-6--6-6--6-6--6--6-6--6-6--6--6-6--6-6--4-4--5-5-|
C|-6--6-6--6-6--6--6-6--6-6--6--6-6--6-6--4-4------|



D|--------------------------------|
A|--------------------------------|
F|-8----7----8-8-8-8-11118-8-7----|
C|---x8---x8-------------------x8-|
G|-6----5----6-6-6-6-9-9-6-6-5----|
C|--------------------------------|
                                           x2
D|--------------------------------------|
A|--------------------------------------|
F|-8----7----8-8-8-8-11118-8-7-7-7-6~~~-|
C|---x8---x8----------------------------|
G|-6----5----6-6-6-6-9-9-6-6-5-5-5-4~~~-|
C|--------------------------------------|



D|-------------------------------------------------|
A|-------------------------------------------------|
F|-------------------------------------------------|
C|-6--6-6--6-6--6--6-6--6-6--6--6-6--6-6--4-4--7-7-|x6
G|-6--6-6--6-6--6--6-6--6-6--6--6-6--6-6--4-4--5-5-|
C|-6--6-6--6-6--6--6-6--6-6--6--6-6--6-6--4-4------|


D|--------------------------------|
A|--------------------------------|
F|-8----7----8-8-8-8-11118-8-7----|
C|---x8---x8-------------------x8-|
G|-6----5----6-6-6-6-9-9-6-6-5----|
C|--------------------------------|
                                           x2
D|--------------------------------------|
A|--------------------------------------|
F|-8----7----8-8-8-8-11118-8-7-7-7-6~~~-|
C|---x8---x8----------------------------|
G|-6----5----6-6-6-6-9-9-6-6-5-5-5-4~~~-|
C|--------------------------------------|


D|-------------|
A|-------------|
F|-7-7-7-6~~~~-|
C|-------------|x2
G|-5-5-5-4~~~~-|
C|-------------|

D|-------------|
A|-------------|
F|-------5-5-5-|
C|-1-1-1-5-5-5-|
G|-1-1-1-3-3-3-|
C|-1-1-1-------|

D|-------------|
A|-------------|
F|-7-7-7-6~~~~-|
C|-------------|x3
G|-5-5-5-4~~~~-|
C|-------------|

D|-------------|
A|-------------|
F|-------5-5-5-|
C|-1-1-1-5-5-5-|
G|-1-1-1-3-3-3-|
C|-1-1-1-------|


end

rhythm guitar
D|-------------------------------------------|
A|-------------------------------------------|
F|-------------------------------------------|
C|-5-5-5-5---5-5-5-5---5-5-5-5---1-1-1-5-5-5-|
G|-5-5-5-5---5-5-5-5---5-5-5-5---1-1-1-3-3-3-|
C|-5-5-5-5---5-5-5-5---5-5-5-5---1-1-1-------|

lead guitar                                       x4
D|-------------------------------------------|
A|-8-----8---6-----6-------------------------|
F|---0-0---0---0-0---0-7-----7---5-5-3-------|
C|-----------------------5-5---5-------7--5--|
G|-------------------------------------------|
C|-------------------------------------------|

rhythm guitar
D|----------------------------------|
A|----------------------------------|
F|---------------------------7~~~~--|
C|-1-1-1-5-5-5--1-1-1-5-5-5--5~~~~--|
G|-1-1-1-3-3-3--1-1-1-3-3-3--5~~~~--|
C|-1-1-1--------1-1-1--------5~~~~--|

lead guitar
D|----------------------------------|
A|----------------------------------|
F|-5-5-3--------/7-7-5-3------------|
C|-------7--5------------7-3-5~~~~--|
G|----------------------------------|
C|----------------------------------|
Добавлено: 12.04.2016
Другие материалы по этой песне:
  • Аккорды и текст

Страница создана 12.04.2016
http://primanota.ru/leathermuth/my-lovenote-has-gone-flat-chords.htm
Привет, Гость.
Предлагаем пройти революционный курс по гитаре.
Подарок от PrimaNota.Ru, забирай!