PrimaNota.ru - самый крупный в мире бесплатный архив песенных текстов, аккордов, табулатур и нот


LeATHERMØUTH - Murder Was The Case That They Gave Me - таба, бас-таба, видео

Регистрация Запомнить меня
Войти через:  Facebook Google Twitter Vk Yandex Mail.ru

LeATHERMØUTH - Murder Was The Case That They Gave Me - таба, бас-таба, видео

Печатать
Просмотров: 114
This is my first tab, so PLEASE don't be hard on me. I got so bored searching for the tabs
to this song, 'cause I couldn't get any, so I decided to try to figure it out by myself! 
a great song by the way! FRANK IERO screams great!!
If you're wondering about something just mail me winnie91@hotmail.com

E|-----------------------------------------------|
B|-----------------------------------------------|
G|-5------8---5------8---3------8-11-11-10-10-10-|
D|-5------8---5------8---3------8-11-11-10-10-10-|
A|-3-2-h3-6---3-2-h3-6---5-2-h3-6-9--9--8--8--8--|
E|-----------------------------------------------|

E|------------------------------------------|
B|------------------------------------------|
G|-5------8---5------8---3------8-6-6-6-6-5-|
D|-5------8---5------8---3------8-6-6-6-6-5-|
A|-3-2-h3-6---3-2-h3-6---5-2-h3-6-4-4-4-4-3-|
E|------------------------------------------|

I try so hard to keep it together
E|-----------------------------------------------|
B|-----------------------------------------------|
G|-5------8---5------8---3------8-11-11-10-10-10-|
D|-5------8---5------8---3------8-11-11-10-10-10-|
A|-3-2-h3-6---3-2-h3-6---5-2-h3-6-9--9--8--8--8--|
E|-----------------------------------------------|

 

My blood runs cold, I clench my fists
E|------------------------------------------|
B|------------------------------------------|
G|-5------8---5------8---3------8-6-6-6-6-5-|
D|-5------8---5------8---3------8-6-6-6-6-5-|
A|-3-2-h3-6---3-2-h3-6---5-2-h3-6-4-4-4-4-3-|


I'll seize the day by it's throat and watch it die
E|-----------------------------------------------|
B|-----------------------------------------------|
G|-5------8---5------8---3------8-11-11-10-10-10-|
D|-5------8---5------8---3------8-11-11-10-10-10-|
A|-3-2-h3-6---3-2-h3-6---5-2-h3-6-9--9--8--8--8--|
E|-----------------------------------------------|


The last thing you see will be my face, remember this face
E|------------------------------------------|
B|------------------------------------------|
G|-5------8---5------8---3------8-6-6-6-6-5-|
D|-5------8---5------8---3------8-6-6-6-6-5-|
A|-3-2-h3-6---3-2-h3-6---5-2-h3-6-4-4-4-4-3-|
E|------------------------------------------|


this ones for old times, this ones for old times, this ones for old times
E|----------------------------------------------|
B|----------------------------------------------|
G|-5-5-5-5-5--5-5-5-5-5--5-5-5-5-5--6-6-6-6-5---|
D|-5-5-5-5-5--5-5-5-5-5--5-5-5-5-5--6-6-6-6-5---| 3X
A|-3-3-3-3-3--3-3-3-3-3--3-3-3-3-3--4-4-4-4-3---|
E|----------------------------------------------|
PM *****      *****      *****


You did this to yourself
E|----------------------------------------------|
B|----------------------------------------------|
G|-5-5-5-5-5--5-5-5-5-5--5-5-5-5-5--6-6-6-6-5---|
D|-5-5-5-5-5--5-5-5-5-5--5-5-5-5-5--6-6-6-6-5---|
A|-3-3-3-3-3--3-3-3-3-3--3-3-3-3-3--4-4-4-4-3---|
E|----------------------------------------------|
PM *****      *****      *****


I try so hard to keep it together
E|-----------------------------------------------|
B|-----------------------------------------------|
G|-5------8---5------8---3------8-11-11-10-10-10-|
D|-5------8---5------8---3------8-11-11-10-10-10-|
A|-3-2-h3-6---3-2-h3-6---5-2-h3-6-9--9--8--8--8--|
E|-----------------------------------------------|


My blood runs cold, I clench my fists
E|------------------------------------------|
B|------------------------------------------|
G|-5------8---5------8---3------8-6-6-6-6-5-|
D|-5------8---5------8---3------8-6-6-6-6-5-|
A|-3-2-h3-6---3-2-h3-6---5-2-h3-6-4-4-4-4-3-|
E|------------------------------------------|


I'll seize the day by it's throat and watch it die
E|-----------------------------------------------|
B|-----------------------------------------------|
G|-5------8---5------8---3------8-11-11-10-10-10-|
D|-5------8---5------8---3------8-11-11-10-10-10-|
A|-3-2-h3-6---3-2-h3-6---5-2-h3-6-9--9--8--8--8--|
E|-----------------------------------------------|


The last thing you see will be my face, remember this face
E|------------------------------------------|
B|------------------------------------------|
G|-5------8---5------8---3------8-6-6-6-6-5-|
D|-5------8---5------8---3------8-6-6-6-6-5-|
A|-3-2-h3-6---3-2-h3-6---5-2-h3-6-4-4-4-4-3-|
E|------------------------------------------|


this ones for old times,this ones for old times
E|----------------------------------------------|
B|----------------------------------------------|
G|-5-5-5-5-5--5-5-5-5-5--5-5-5-5-5--6-6-6-6-5---|
D|-5-5-5-5-5--5-5-5-5-5--5-5-5-5-5--6-6-6-6-5---| 2X
A|-3-3-3-3-3--3-3-3-3-3--3-3-3-3-3--4-4-4-4-3---|
E|----------------------------------------------|
PM *****      *****      *****


So empty inside, so empty inside, so empty
E|----------------------------------------------|
B|----------------------------------------------|
G|-5-5-5-5-5--5-5-5-5-5--5-5-5-5-5--6-6-6-6-5---|
D|-5-5-5-5-5--5-5-5-5-5--5-5-5-5-5--6-6-6-6-5---|
A|-3-3-3-3-3--3-3-3-3-3--3-3-3-3-3--4-4-4-4-3---|
E|----------------------------------------------|
PM *****      *****      *****


So empty inside, so empty inside, so empty inside
E|----------------------------------------------|
B|----------------------------------------------|
G|-5-5-5-5-5--5-5-5-5-5--5-5-5-5-5--6-6-6-6-5---|
D|-5-5-5-5-5--5-5-5-5-5--5-5-5-5-5--6-6-6-6-5---|
A|-3-3-3-3-3--3-3-3-3-3--3-3-3-3-3--4-4-4-4-3---|
E|----------------------------------------------|
PM *****      *****      *****


This is my counterstrike, right here my call to arms
E|----------------------------------|
B|----------------------------------|
G|-5-5-5-5-5-5-5-5------------------|
D|-5-5-5-5-5-5-5-5-8-8-8-8-8-8-8-8--|
A|-3-3-3-3-3-3-3-3-8-8-8-8-8-8-8-8--|
E|-----------------6-6-6-6-6-6-6-6--|


I've scarred my battle cry, search and destroy you fucking whore
E|-------------------------------------|
B|-------------------------------------|
G|-5-5-5-5-5-5-5-5-6-6-6-6-6-6-6-666-5-|
D|-5-5-5-5-5-5-5-5-6-6-6-6-6-6-6-666-5-|
A|-3-3-3-3-3-3-3-3-4-4-4-4-4-4-4-444-3-|
E|-------------------------------------|


I'm burning down your house now.hope to God you're in your house
E|----------------------------------|
B|----------------------------------|
G|-5-5-5-5-5-5-5-5------------------|
D|-5-5-5-5-5-5-5-5-8-8-8-8-8-8-8-8--|
A|-3-3-3-3-3-3-3-3-8-8-8-8-8-8-8-8--|
E|-----------------6-6-6-6-6-6-6-6--|


Burns bright like a star traiter the sun smiles on your corpse traiter
E|-------------------------------|
B|-------------------------------|
G|-5-5-5-5-5-5-5-5-6-6-6-6-6-6-6-|
D|-5-5-5-5-5-5-5-5-6-6-6-6-6-6-6-|
A|-3-3-3-3-3-3-3-3-4-4-4-4-4-4-4-|
E|-------------------------------|

E|-----------|
B|-----------|
G|-6-6-6-5~--| 4X
D|-6-6-6-5~--|
A|-4-4-4-3~--|
E|-----------|


Your cries mean nothing
E|--------------------|
B|--------------------|
G|-6-5-6-5-6--6-6-6-5-|
D|-6-5-6-5-6--6-6-6-5-|
A|-4-3-4-3-4--4-4-4-3-|
E|--------------------|


I'll take my time, Your cries mean nothing, I'll take my time
E|----------------------|
B|----------------------|
G|-5-5-5-5-5-5--6-6-6-5-|
D|-5-5-5-5-5-5--6-6-6-5-| 3X
A|-3-3-3-3-3-3--4-4-4-3-|
E|----------------------|

E|--------------------|
B|--------------------|
G|-6-5-6-5-6--6-6-6-5-|
D|-6-5-6-5-6--6-6-6-5-|
A|-4-3-4-3-4--4-4-4-3-|
E|--------------------|


I can't leave you breathing, I can't leave you breathing, I can't leave you breathing
E|----------------------|
B|----------------------|
G|-5-5-5-5-5-5--6-6-6-5-|
D|-5-5-5-5-5-5--6-6-6-5-| 3X
A|-3-3-3-3-3-3--4-4-4-3-|
E|----------------------|


All the stories you'd tell
E|-------------|
B|-------------|
G|-6-5-6-5-6---|
D|-6-5-6-5-6---|
A|-4-3-4-3-4---|
E|-------------|


Maybe you'll learn when the dirt fills your lungs, Maybe you'll learn ...
E|-----------|
B|-----------|
G|-6-6-6-5~--| 4X
D|-6-6-6-5~--|
A|-4-4-4-3~--|
E|-----------|


when the dirt fills your lungs
E|------------|
B|------------|
G|-6-5-6-5-6--|
D|-6-5-6-5-6--|
A|-4-3-4-3-4--|
E|------------|


I am your nightmare, I am the shape in the dark, I am your ending
E|-----------|
B|-----------|
G|-6-6-6-5~--| 4X
D|-6-6-6-5~--|
A|-4-4-4-3~--|
E|-----------|


Ashes to ashes, dust to dust God knows i've had better.
E|-------------------|
B|-------------------|
G|-6-5-6-5-6-6-6-6-5-|
D|-6-5-6-5-6-6-6-6-5-| 4X
A|-4-3-4-3-4-4-4-4-3-|
E|-------------------|

Добавлено: 16.06.2016
Другие материалы по этой песне:
  • Аккорды и текст

Страница создана 01.03.2016
http://primanota.ru/leathermuth/murder-was-case-that-they-gave-me-chords.htm
Привет, Гость.
Предлагаем пройти революционный курс по гитаре.
Подарок от PrimaNota.Ru, забирай!