PrimaNota.ru - самый крупный в мире бесплатный архив песенных текстов, аккордов, табулатур и нот


LeATHERMØUTH - Catch Me If You Can Mr Lusk - таба, видео

Регистрация Запомнить меня
Войти через:  Facebook Google Twitter Vk Yandex Mail.ru

LeATHERMØUTH - Catch Me If You Can Mr Lusk - таба, видео

Печатать
Просмотров: 70
LeATHERMOUTH - Catch Me If You Can Mr Lusk
jjjddd

Drop C 

-feedback-

-verse 1-
D|--------------------------------------------------|
A|--------------------------------------------------|
F|-5/7--7-7--7-7--7-7-7-----------------------------|
C|-5/7--7-7--7-7--7-7-7-x4--3-3--3--3-3/5--5--5--5--| x2
G|-3/5--5-5--5-5--5-5-5-----3-3--3--3-3/5--5--5--5--|
C|--------------------------3-3--3--3-3/5--5--5--5--|
                          "THE NYPD AINT GOT SHIT ON ME"
-chorus-
D|--------------------------| D|--------------------|
A|--------------------------| A|--------------------|
F|-5/7--7-7--7-7--7-7-7-----| F|--------------------|
C|-5/7--7-7--7-7--7-7-7-x4--| C|--3--1--0~~~-x4-----|
G|-3/5--5-5--5-5--5-5-5-----| G|--3--1--0~~~--------|
C|--------------------------| C|--3--1--0~~~--------|
       "NO  REST"

-verse 2-
D|--------------------------------------------------|
A|--------------------------------------------------|
F|-5/7--7-7--7-7--7-7-7-----------------------------|
C|-5/7--7-7--7-7--7-7-7-x4--3-3--3--3-3/5--5--5--5--| x2
G|-3/5--5-5--5-5--5-5-5-----3-3--3--3-3/5--5--5--5--|
C|--------------------------3-3--3--3-3/5--5--5--5--|

-chorus-
D|--------------------------| D|--------------------|
A|--------------------------| A|--------------------|
F|-5/7--7-7--7-7--7-7-7-----| F|--------------------|
C|-5/7--7-7--7-7--7-7-7-x4--| C|--3--1--0~~~-x4-----|
G|-3/5--5-5--5-5--5-5-5-----| G|--3--1--0~~~--------|
C|--------------------------| C|--3--1--0~~~--------|


-breakdown-
D|--------------------------------|
A|--------------------------------|
F|-5/7~~~--5/7~~~-5/7~~~--5/7\\\--| CUT THE FUCKIN LIGHTS
C|-5/7~~~--5/7~~~-5/7~~~--5/7\\\--|
G|-3/5~~~--3/5~~~-3/5~~~--3/7\\\--|
C|--------------------------------|

D|--------------------------------------------------------------|
A|--------------------------------------------------------------|
F|-5/7-----7~-----5/7-----7~-----5/7-----7~---------------------|
C|-5/7-----7~-----5/7-----7~-----5/7-----7~-----6p5---3h5---3p0-|x5
G|-3/5-0-0-5~-0-0-3/5-0-0-5~-0-0-3/5-0-0-5~-0-0-6p5-0-3h5-0-3p0-|
C|-----0-0----0-0-----0-0----0-0-----0-0----0-0-6p5-0-3h5-0-3p0-|
       * *    * *     * *    * *     * *    * *

D|-----------------------------------------------|
A|---------6~~~~~---------5~~~~~---------6~~~~~--|
F|-5/7-----7~~~~~-5/7-----5~~~~~-5/7-----7~~~~~--|          <-----|
C|-5/7-----7~~~~~-5/7-----5~~~~~-5/7-----7~~~~~--|                |
G|-3/5-0-0-5~~~~~-3/5-0-0-3~~~~~-3/5-0-0-5~~~~~--|                |
C|-----0-0------------0-0------------0-0---------|                |x2
       * *            * *            * *                          |
D|-----------------------------|                                  |
A|-----------------------------|                            <-----|
F|-10\8-----8~~~~-----5-----7--|
C|-10\8-----8~~~~-----5-----7--|
G|-8-\6-0-0-6~~~~-0-0-3-0-0-5--|
C|------0-0-------0-0---0-0----|
        * *       * *   * *
-end-
D|----------------------------------|
A|----------------------------------|
F|----------------------------------|
C|-0-5+-0-5+-0-5+-0-5+-0-5+-0-5+-0--|
G|-0-5+-0-5+-0-5+-0-5+-0-5+-0-5+-0--|
C|-0-5+-0-5+-0-5+-0-5+-0-5+-0-5+-0--|

+ = natural harmonic
Добавлено: 01.03.2016
Другие материалы по этой песне:
  • Аккорды и текст

Страница создана 01.03.2016
http://primanota.ru/leathermuth/catch-me-if-you-can-mr-lusk-chords.htm
Привет, Гость.
Предлагаем пройти революционный курс по гитаре.
Подарок от PrimaNota.Ru, забирай!