PrimaNota.ru - самый крупный в мире бесплатный архив песенных текстов, аккордов, табулатур и нот


Leathermouth - This Song Is About Being Attacked By Monsters - таба, видео

Регистрация Запомнить меня
Войти через:  Facebook Google Twitter Vk Yandex Mail.ru

Leathermouth - This Song Is About Being Attacked By Monsters - таба, видео

Печатать
Просмотров: 147
This Song Is About Being Attacked By Monsters (My Immaculate)
LeATHERMOUTH
jjjddd

Drop C

D|---------------------------------|
A|---------------------------------|
F|---------------------------------|
C|-0-0-0-0-0-0-0-----0-0-0-0-0-0-0-|
G|-0-0-0-0-0-0-0-----0-0-0-0-0-0-0-|
C|-0-0-0-0-0-0-0-----0-0-0-0-0-0-0-|
  WE NEED A DOCTOR  A FUCKIN DOCTOR


verse
D|------------------------------------------------------------|
A|------------------------------------------------------------|
F|------------------------------------------------------------|
C|-6-6--6-6-6--6-7-7--7-7-7-7-7--7-7--7-7-7--7-5-5--5-5-7-7-7-|x4
G|-5-5--5-5-5--5-5-5--5-5-7-7-7--6-6--6-6-6--6-6-6--6-6-7-7-7-|
C|------------------------7-7-7-------------------------7-7-7-|


chorus
D|------------------------------------------------------------|
A|------------------------------------------------------------|
F|------------------------------------------------------------|
C|---------------------------------------5-x8-----------------|
G|---------5-5-------------5-5-----5-------------5------3-----|
C|-8-8-8-8-----8-8-7-7-7-7-----7-7-5-x8----------3-x8---2-x8--|
                                                                 x2
D|---------------------------------|
A|---------------------------------|
F|---------------------------------|
C|-0-0-0-0-0-0-0-----0-0-0-0-0-0-0-|
G|-0-0-0-0-0-0-0-----0-0-0-0-0-0-0-|
C|-0-0-0-0-0-0-0-----0-0-0-0-0-0-0-|


verse
D|------------------------------------------------------------|
A|------------------------------------------------------------|
F|------------------------------------------------------------|
C|-6-6--6-6-6--6-7-7--7-7-7-7-7--7-7--7-7-7--7-5-5--5-5-7-7-7-|x4
G|-5-5--5-5-5--5-5-5--5-5-7-7-7--6-6--6-6-6--6-6-6--6-6-7-7-7-|
C|------------------------7-7-7-------------------------7-7-7-|


chorus
D|------------------------------------------------------------|
A|------------------------------------------------------------|
F|------------------------------------------------------------|
C|---------------------------------------5-x8-----------------|
G|---------5-5-------------5-5-----5-------------5------3-----|
C|-8-8-8-8-----8-8-7-7-7-7-----7-7-5-x8----------3-x8---2-x8--|
                                                                 x2
D|---------------------------------|
A|---------------------------------|
F|---------------------------------|
C|-0-0-0-0-0-0-0-----0-0-0-0-0-0-0-|
G|-0-0-0-0-0-0-0-----0-0-0-0-0-0-0-|
C|-0-0-0-0-0-0-0-----0-0-0-0-0-0-0-|


bridge(??) theres two guitars here but its hard to pick them out
           so i just tabbed the most prominent sounding one
D|------------------------------------------------|
A|------------------------------------------------|
F|-7----7------10---10-----12---12-----14---14----|
C|---x7---x7-----x7---x7-----x7---x7-----x7---x7--|
G|-5----5------8----8------10---10-----12---12----|
C|------------------------------------------------|

D|------------------------------------------------------|
A|------------------------------------------------------|
F|-7----7------10---10101010\9-9-9---12---12-----14-----|
C|---x7---x7-----x7--------------------x7---x7-----x16--|
G|-5----5------8----8-8-8-8-\7-7-7---10---10-----12-----|
C|------------------------------------------------------|


end
D|--------------------------------------------|
A|--------------------------------------------|
F|-------10101010\9-9-9--------8-8-8-8\7-7-7--|
C|-0--0------------------8--8-----------------|x3
G|-0--0--8-8-8-8-\7-7-7--8--8--6-6-6-6\5-5-5--|
C|-0--0------------------8--8-----------------|

D|------------------------------|-------------------------|
A|------------------------------|-------------------------|
F|-------10101010\9-9-9------///|-15-15-15-15\14-14-14----|
C|-0--0------------------8--8---|----------------------x3-|
G|-0--0--8-8-8-8-\7-7-7--8--8///|-13-13-13-13\12-12-12----|
C|-0--0------------------8--8---|-------------------------|
Добавлено: 14.09.2013
Вам также может быть интересно:
Другие материалы по этой песне:
  • Аккорды и текст

Страница создана 14.09.2013
http://primanota.ru/leathermouth/this-song-is-about-being-attacked-by-monsters-chords.htm
Привет, Гость.
Предлагаем пройти революционный курс по гитаре.
Подарок от PrimaNota.Ru, забирай!