PrimaNota.ru - самый крупный в мире бесплатный архив песенных текстов, аккордов, табулатур и нот


Leathermouth - Sunsets Are For Muggings - таба, видео

Регистрация Запомнить меня
Войти через:  Facebook Google Twitter Vk Yandex Mail.ru

Leathermouth - Sunsets Are For Muggings - таба, видео

Печатать
Просмотров: 172
Sunsets Are For Muggings
LeATHERMOUTH
jjjddd

Drop C


D|---------------------------------|    
A|---------------------------------|    this is for the kids who aint got no soul
F|---------------------------------|    never think twice got nowhere to go
C|--3--5~~~~~~---------------------|x4  this is for the pills that never fuckin work
G|--3--5~~~~~~---------------------|    but its hard to see blood on a black tshirt
C|--3--5~~~~~~---------------------|

D|---------------------------------|
A|---------------------------------|    never understand cause they were understood
F|---------------------------------|    an open minded fake in a bright white coat
C|-3-5---5-5-5-5-5-5-8---5-5-5-5-5-|x4  tell me what you know about my bleeding fucking heart
G|-3-5---5-5-5-5-5-5-8---5-5-5-5-5-|    ill pass all your tests cause i lie like the best
C|-3-5---5-5-5-5-5-5-8---5-5-5-5-5-|

D|--------------|
A|--------------|      life is a fight
F|-5--5-5-5-----|      life is a fight
C|-5--5-5-5--3--|x4    life is a fight
G|-3--3-3-3--3--|      life is a fight fight fight
C|-----------3--|

D|---------------------------------|
A|---------------------------------|   they never really listen cause they never fucking care 
F|---------------------------------|   the way i feel inside they can never fucking hear 
C|-3-5---5-5-5-5-5-5-8---5-5-5-5-5-|x4 all they wanna know about is insurance cards 
G|-3-5---5-5-5-5-5-5-8---5-5-5-5-5-|   the pain i have inside has made me fucking strong
C|-3-5---5-5-5-5-5-5-8---5-5-5-5-5-|

D|--------------|
A|--------------|      life is a fight
F|-5--5-5-5-----|      life is a fight
C|-5--5-5-5--3--|x4    life is a fight
G|-3--3-3-3--3--|      life is a fight fight fight
C|-----------3--|

D|---------------------------------|
A|---------------------------------|    this is for the kids who aint got no soul
F|---------------------------------|    never think twice got nowhere to go
C|-3-5---5-5-5-5-5-5-8---5-5-5-5-5-|x4  this is for the pills that never fuckin work
G|-3-5---5-5-5-5-5-5-8---5-5-5-5-5-|    but its hard to see blood on a black tshirt
C|-3-5---5-5-5-5-5-5-8---5-5-5-5-5-|

D|--------------|
A|--------------|      life is a fight
F|-5--5-5-5-----|      life is a fight
C|-5--5-5-5--3--|x4    life is a fight
G|-3--3-3-3--3--|      life is a fight fight fight
C|-----------3--|

on the last repeat slide the last 
chord up to the fifth fret and hold it

D|---------------------------------|---------|
A|---------------------------------|---------|   never found a place i felt i fit
F|---------------------------------|---------|   never met someone who gave a shit
C|(5)------------------------------|-5---8-8-|   but i believe in fuckin what weve got
G|(5)------------------------------|-5---8-8-|   now we gotta chance to set it off
C|(5)------------------------------|-5---8-8-|
                                   "set it off"

solo

rhythm guitar
D|-----------------------------------------------------------------|
A|-----------------------------------------------------------------|
F|---------------------------------5-5-5-5-5-5-5-5-----------------|
C|-5-5-5-5-5-5-5-5-3-3-3-3-3-3-3-3-5-5-5-5-5-5-5-5-6-6-6-6-6-6-6-8-|
G|-5-5-5-5-5-5-5-5-3-3-3-3-3-3-3-3-3-3-3-3-3-3-3-3-6-6-6-6-6-6-6-8-|
C|-5-5-5-5-5-5-5-5-3-3-3-3-3-3-3-3-----------------6-6-6-6-6-6-6-8-|
lead guitar                                                           x2
D|/15--15--15--15--13--13--13--13----8---8---8---8---8---8---8---8-|
A|---------------------------------8---8---8---8---9---9---9---9---|
F|-----------------------------------------------------------------|
C|-----------------------------------------------------------------|
G|-----------------------------------------------------------------|
C|-----------------------------------------------------------------|

D|-------------------------------|
A|-------------------------------|   youll never take me alive because im already dead
F|-----------------------------5-|   youll never take me alive because im already dead
C|-5-5-5-5-5-5-5-8-3-3-3-3-3-3-5-|x4 youll never take me alive because im already dead
G|-5-5-5-5-5-5-5-8-3-3-3-3-3-3-3-|   youll never take me alive because im already....
C|-5-5-5-5-5-5-5-8-3-3-3-3-3-3---|

D|---------------------|
A|---------------------|
F|---5-----------------|
C|---5----3--5~~~~~~~--|
G|---3----3--5~~~~~~~--|
C|--------3--5~~~~~~~--|
 ...dead inside
Добавлено: 29.06.2013
Другие материалы по этой песне:
  • Аккорды и текст

Страница создана 29.06.2013
http://primanota.ru/leathermouth/sunsets-are-for-muggings-chords.htm
Привет, Гость.
Предлагаем пройти революционный курс по гитаре.
Подарок от PrimaNota.Ru, забирай!