PrimaNota.ru - самый крупный в мире бесплатный архив песенных текстов, аккордов, табулатур и нот


Leathermouth - Myself - таба, видео

Регистрация Запомнить меня
Войти через:  Facebook Google Twitter Vk Yandex Mail.ru

Leathermouth - Myself - таба, видео

Печатать
Просмотров: 198
Myself (bonus track)
LeATHERMOUTH
jjjddd

Drop C

D|--------------------------------------|
A|--------------------------------------|
F|--------------------------------------|
C|-----3-----3-----3-----3/6-6-6--2-2-2-|
G|-0-0-1-0-0-1-0-0-1-0-0-1/4-4-4--0-0-0-|
C|--------------------------------------|
   * *   * *   * *   * *                    x4
D|--------------------------------------|
A|--------------------------------------|
F|--------------------------------------|
C|-----3-----3-----3-----3/6-6-6--9-9-9-|
G|-0-0-1-0-0-1-0-0-1-0-0-1/4-4-4--7-7-7-|
C|--------------------------------------|
   * *   * *   * *   * *


D|---------------------------------|
A|---------------------------------|
F|---------------------------------|
C|-9-99-99-9-99-99-----------------|x4
G|-7-77-77-7-77-77-8-88-85-8-88-88-|
C|-----------------8-88-85-8-88-88-|



D|--------------------------------------|
A|--------------------------------------|
F|--------------------------------------|
C|-----3-----3-----3-----3/6-6-6--2-2-2-|
G|-0-0-1-0-0-1-0-0-1-0-0-1/4-4-4--0-0-0-|
C|--------------------------------------|
   * *   * *   * *   * *                    x4
D|--------------------------------------|
A|--------------------------------------|
F|--------------------------------------|
C|-----3-----3-----3-----3/6-6-6--9-9-9-|
G|-0-0-1-0-0-1-0-0-1-0-0-1/4-4-4--7-7-7-|
C|--------------------------------------|
   * *   * *   * *   * *


D|---------------------------------|
A|---------------------------------|
F|---------------------------------|
C|-9-99-99-9-99-99-----------------|x4
G|-7-77-77-7-77-77-8-88-85-8-88-88-|
C|-----------------8-88-85-8-88-88-|


D|----------------|
A|----------------|
F|----------------|
C|----------------|
G|-58-88-85-88-85-|
C|-58-88-85-88-85-|

D|------------------------------------------------------------------------|
A|------------------------------------------------------------------------|
F|------------------------------------------------------------------------|
C|------------------------------------------------------------------------|x2
G|-4---4---4---4-7-5-4---4---4---4-7-5-4---4---4---4-7-5-4---4---2----7-5-|
C|-4---4---4---4-7-5-4---4---4---4-7-5-4---4---4---4-7-5-4---4---2----7-5-|

D|------------------------------------------------------------------------|
A|------------------------------------------------------------------------|
F|------------------------------------------------------------------------|
C|------------------------------------------------------------------------|
G|-4b--4b--4b--4-7-5-4b--4b--4b--4-7-5-4b--4b--4b--4-7-5-4b--4b--2~~~~~~--|
C|-4b--4b--4b--4-7-5-4b--4b--4b--4-7-5-4b--4b--4b--4-7-5-4b--4b--2~~~~~~--|


Добавлено: 04.08.2013
Другие материалы по этой песне:
  • Аккорды и текст

Страница создана 04.08.2013
http://primanota.ru/leathermouth/myself-chords.htm
Привет, Гость.
Предлагаем пройти революционный курс по гитаре.
Подарок от PrimaNota.Ru, забирай!