PrimaNota.ru - самый крупный в мире бесплатный архив песенных текстов, аккордов, табулатур и нот


Leathermouth - I Am Going To Kill The President Of The United States Of America - бас-таба, видео

Регистрация Запомнить меня
Войти через:  Facebook Google Twitter Vk Yandex Mail.ru

Leathermouth - I Am Going To Kill The President Of The United States Of America - бас-таба, видео

Печатать
Просмотров: 136
I Am Going To Kill The President Of The United States of America
Leathermouth
Bass Tab

Intro-"If this is the front line..." 2x
G-----------------------------|
D-----------------------------|
A-5--5-5-5--5-5-5--5-5-5--33--|
E--5--5-5-5--5-5-5--5-5-5---3-| 

Verse-"Devils..." 2x
G------------------------------|
D------------------------------|
A-5--5-5-5--5-5-5--3-3-3-------|
E--5--5-5-5--5-5-5--3-3-3-0-00-|
  
Chorus-"I can't believe what you say..." 2x
G------------------------------------------------|
D------------------------------------------------|
A-------------------------3-3--------------------|
E-0[16x]-5[8x]-3[4x]-1[4x]-3-3-7[8x]-5[4x]-3[4x]-|

Repeat:
Intro-2x
Verse-2x
Chorus-1x


I'm not 100% sure if the bridge is right. If not let me know please :]
Bridge-"Rather have my eyes sewn shut..." 5x
G------------------------|
D------------------------|
A-9-7-5-3-1~-------------|
E------------9-7-5-3-1~--|

Rest during guitar part. Then play:
G----|
D----|
A----|
E-0~-|

Play the verse for the rest of the song. Enjoy! :]
Добавлено: 19.04.2012
Другие материалы по этой песне:

Страница создана 01.03.2012
http://primanota.ru/leathermouth/i-am-going-to-kill-the-president-of-the-united-states-of-america-chords.htm
Привет, Гость.
Предлагаем пройти революционный курс по гитаре.
Подарок от PrimaNota.Ru, забирай!