PrimaNota.ru - самый крупный в мире бесплатный архив песенных текстов, аккордов, табулатур и нот


Leathermouth - Fifth Period - таба, видео

Регистрация Запомнить меня
Войти через:  Facebook Google Twitter Vk Yandex Mail.ru

Leathermouth - Fifth Period - таба, видео

Печатать
Просмотров: 131
-------------------------------------------------------------------------------
                             Fifth Period - Leathermouth
-------------------------------------------------------------------------------
Tabbed by:Lindz
Email: xxpickles@hotmail.com

Tuning: Drop C


Verse 1:

D|---------------------------------------------------------------------------|
A|---------------------------------------------------------------------------|
F|---------------------------------------------------------------------------|
C|---666-555-00--------------------------------------------------------------|
G|---666-555-00--------------------------------------------------------------|
C|---666-555-00-----x12------------------------------------------------------|


Chorus:

D|---------------------------------------------------------------------------|
A|---------------------------------------------------------------------------|
F|--5-4----------------------------------------------------------------------|
C|--5-4--4-3-----------------------------------------------------------------|
G|--3-2--4-3-----------------------------------------------------------------|
C|-------4-3------x5---------------------------------------------------------|


Verse 2 [Comes in at about 00:40] :

D|---------------------------------------------------------------------------|
A|---------------------------------------------------------------------------|
F|---------------------------------------------------------------------------|
C|---666-555-00--------------------------------------------------------------|
G|---666-555-00--------------------------------------------------------------|
C|---666-555-00-----x5-------------------------------------------------------|


Chorus:

D|---------------------------------------------------------------------------|
A|---------------------------------------------------------------------------|
F|--5-4-------------------5-4------------------------------------------------|
C|--5-4--4-3--------------5-4-4-3-2-1---------4-3-2-1------------------------|
G|--3-2--4-3--------------3-2-4-3-2-1---------4-3-2-1------------------------|
C|-------4-3------x4----------4-3-2-1---------4-3-2-1-about 4 times----------|


Breakdown guitar 1

D|-------4[bend]-5[bend]--7[bend]------------------4[bend]-------------------|
A|---------------------------------------------------------------------------|
F|---------------------------------xabout 5----------------x5----------------|
C|---------------------------------------------------------------------------|
G|---------------------------------------------------------------------------|
C|---------------------------------------------------------------------------|

Breakdown guitar 2
D|---------------------------------------------------------------------------|
A|---------------------------------------------------------------------------|
F|---------------------------------------------------------------------------|
C|-----8-----2-3-/9-8----------------------0----1-3-9------------------------|
G|-----8-----2-3-/9-8----------------------0----1-3-9------------------------|
C|-----8-x7--2-3-/9-8-------x about 5------0-x7-1-3-9------x5----------------|






| /  slide up
| \  slide down
| h  hammer-on
| p  pull-off
| ~  vibrato
| +  harmonic
| x  Mute note
===============================================================================
Добавлено: 23.07.2012
Другие материалы по этой песне:
  • Аккорды и текст

Страница создана 23.07.2012
http://primanota.ru/leathermouth/fifth-period-chords.htm
Привет, Гость.
Предлагаем пройти революционный курс по гитаре.
Подарок от PrimaNota.Ru, забирай!