PrimaNota.ru - самый крупный в мире бесплатный архив песенных текстов, аккордов, табулатур и нот


Leathermouth - Bodysnatchers 4 Ever - таба, видео

Регистрация Запомнить меня
Войти через:  Facebook Google Twitter Vk Yandex Mail.ru

Leathermouth - Bodysnatchers 4 Ever - таба, видео

Печатать
Просмотров: 96
Bodysnatchers 4 Ever (What's A Pulse Got Ta Do With It?)
LeATHERMOUTH
jjjddd

Drop C

bass intro

                      play this whole line twice
D|---------------------------|   D|-------------------------------------------------|
A|---------------------------|   A|-------------------------------------------------|
F|-7--7-7-7--7-7-7-7-7-7-7-5-|   F|-------------------------------------------------|
C|-7--7-7-7--7-7-7-7-7-7-7-5-|x2 C|-7-7---7-7---7-7---7-7-8-8----8-8----7-7---7-7---|
G|-5--5-5-5--5-5-5-5-5-5-5-3-|   G|-7-8p7-7-8p7-7-8p7-7-7-8-10p8-8-10p8-7-8p7-7-8p7-|
C|---------------------------|   C|-7-7---7-7---7-7---7-7-8-8----8-8----7-7---7-7---|


D|------------------------------------|
A|------------------------------------|
F|------------------------------------|
C|-0--0--12\---0--0--12\---0--0--12\--|
G|-0--0--12\---0--0--12\---0--0--12\--|
C|-0--0--12\---0--0--12\---0--0--12\--|
                                                        x2
D|-------------------------------------------------|
A|-------------------------------------------------|
F|-------------------------------------------------|
C|-7-7---7-7---7-7---7-7-8-8----8-8----7-7---7-7---|
G|-7-8p7-7-8p7-7-8p7-7-7-8-10p8-8-10p8-7-8p7-7-8p7-|
C|-7-7---7-7---7-7---7-7-8-8----8-8----7-7---7-7---|


all of this repeats 


D|--------------------------------------------------------------------|
A|--------------------------------------------------------------------|
F|--------------------------------------------------------------------|
C|--------------------------------------------------------------------|
G|-----------------------------------------------------5--5-5--5--5-5-|
C|-0-0-12\-00-0-12\-00-0-12\-00-0-12\--3--3-3--3--3-3--5--5-5--5--5-5-|

D|--------------------------------------------------------------------|
A|--------------------------------------------------------------------|
F|--------------------------------------------------------------------|
C|--------------------------------------------------------------0-0-0-|
G|-----------------------------------------------------5--5-5-5-0-0-0-|
C|-0-0-12\-00-0-12\-00-0-12\-00-0-12\--3--3-3--3--3-3--5--5-5-5-0-0-0-|
                                                                * * *


D|--------------------------------------------------------------|
A|--------------------------------------------------------------|
F|--------------------------------------------------------------|
C|-0--0-0-00--0-0-00--0-0-00--0-0-3--3-3--33--3-3-77-7-7-77-7-7-|x4
G|-0--0-0-00--0-0-00--0-0-00--0-0-5--5-5--55--5-5-55-5-5-55-5-5-|
C|-0--0-0-00--0-0-00--0-0-00--0-0-3--3-3--33--3-3-55-5-5-55-5-5-|


D|-------------------------------------|
A|-------------------------------------|
F|-------------------------------------|
C|-0--0--12\---0--0--12\---0--0--12\-0-|
G|-0--0--12\---0--0--12\---0--0--12\-0-|
C|-0--0--12\---0--0--12\---0--0--12\-0-|
Добавлено: 06.08.2013
Другие материалы по этой песне:
  • Аккорды и текст

Страница создана 06.08.2013
http://primanota.ru/leathermouth/bodysnatchers-4-ever-chords.htm
Привет, Гость.
Предлагаем пройти революционный курс по гитаре.
Подарок от PrimaNota.Ru, забирай!