PrimaNota.ru - самый крупный в мире бесплатный архив песенных текстов, аккордов, табулатур и нот


Leathermouth - Body Snatchers Forever - таба, видео

Регистрация Запомнить меня
Войти через:  Facebook Google Twitter Vk Yandex Mail.ru

Leathermouth - Body Snatchers Forever - таба, видео

Печатать
Просмотров: 183
-------------------------------------------------------------------------------
               Body Snatchers Forever - Leathermouth
-------------------------------------------------------------------------------
Tabbed by: Sean More
Email: seanmore@hotmail.co.uk

This is a great song by a great band! Enjoy!

Tuning: Standard

After Bass Intro...

e|----------------------------------------------------------------------|
B|----------------------------------------------------------------------|
G|-5-5-5-5-5-5-5-3--5-5-5-5-5-5-5-3-------------------------------------|
D|-5-5-5-5-5-5-5-3--5-5-5-5-5-5-5-3--3-3-3-3-3-3-3-3--6-6-6-6-5-5-5-5---|
A|-3-3-3-3-3-3-3-1--3-3-3-3-3-3-3-1--3-3-3-3-3-3-3-3--6-6-6-6-5-5-5-5---|
E|-----------------------------------1-1-1-1-1-1-1-1--4-4-4-4-3-3-3-3---|

e|----------------------------------------------------------------------|
B|----------------------------------------------------------------------|
G|-5-5-5-5-5-5-5-3--5-5-5-5-5-5-5-3-------------------------------------|
D|-5-5-5-5-5-5-5-3--5-5-5-5-5-5-5-3--3-3-3-3-3-3-3-3--6-6-6-6-5-5-5-5---|
A|-3-3-3-3-3-3-3-1--3-3-3-3-3-3-3-1--3-3-3-3-3-3-3-3--6-6-6-6-5-5-5-5---|
E|-----------------------------------1-1-1-1-1-1-1-1--4-4-4-4-3-3-3-3---|

e|------------------------------------------------------|
B|------------------------------------------------------|
G|-5-5--5-5--5-5--5-5-----------------------------------|
D|-5-5--5-5--5-5--5-5--3-3-3-3-3-3-3-3--6-6-6-6-5-5-5-5-|
A|-3-3--3-3--3-3--3-3--3-3-3-3-3-3-3-3--6-6-6-6-5-5-5-5-|
E|---------------------1-1-1-1-1-1-1-1--4-4-4-4-3-3-3-3-|

e|------------------------------------------------------|
B|------------------------------------------------------|
G|-5-5--5-5--5-5--5-5-----------------------------------|
D|-5-5--5-5--5-5--5-5--3-3-3-3-3-3-3-3--6-6-6-6-5-5-5-5-|
A|-3-3--3-3--3-3--3-3--3-3-3-3-3-3-3-3--6-6-6-6-5-5-5-5-|
E|---------------------1-1-1-1-1-1-1-1--4-4-4-4-3-3-3-3-|

e|----------------------------------------------------------------------|
B|----------------------------------------------------------------------|
G|-5-5-5-5-5-5-5-3--5-5-5-5-5-5-5-3-------------------------------------|
D|-5-5-5-5-5-5-5-3--5-5-5-5-5-5-5-3--3-3-3-3-3-3-3-3--6-6-6-6-5-5-5-5---|
A|-3-3-3-3-3-3-3-1--3-3-3-3-3-3-3-1--3-3-3-3-3-3-3-3--6-6-6-6-5-5-5-5---|
E|-----------------------------------1-1-1-1-1-1-1-1--4-4-4-4-3-3-3-3---|

e|----------------------------------------------------------------------|
B|----------------------------------------------------------------------|
G|-5-5-5-5-5-5-5-3--5-5-5-5-5-5-5-3-------------------------------------|
D|-5-5-5-5-5-5-5-3--5-5-5-5-5-5-5-3--3-3-3-3-3-3-3-3--6-6-6-6-5-5-5-5---|
A|-3-3-3-3-3-3-3-1--3-3-3-3-3-3-3-1--3-3-3-3-3-3-3-3--6-6-6-6-5-5-5-5---|
E|-----------------------------------1-1-1-1-1-1-1-1--4-4-4-4-3-3-3-3---|

e|------------------------------------------------------|
B|------------------------------------------------------|
G|-5-5--5-5--5-5--5-5-----------------------------------|
D|-5-5--5-5--5-5--5-5--3-3-3-3-3-3-3-3--6-6-6-6-5-5-5-5-|
A|-3-3--3-3--3-3--3-3--3-3-3-3-3-3-3-3--6-6-6-6-5-5-5-5-|
E|---------------------1-1-1-1-1-1-1-1--4-4-4-4-3-3-3-3-|

e|------------------------------------------------------|
B|------------------------------------------------------|
G|-5-5--5-5--5-5--5-5-----------------------------------|
D|-5-5--5-5--5-5--5-5--3-3-3-3-3-3-3-3--6-6-6-6-5-5-5-5-|
A|-3-3--3-3--3-3--3-3--3-3-3-3-3-3-3-3--6-6-6-6-5-5-5-5-|
E|---------------------1-1-1-1-1-1-1-1--4-4-4-4-3-3-3-3-|

e|----|
B|----|
G|-5~-|
D|-5~-|
A|-3~-|
E|----|

e|----|
B|----|
G|-5~-|
D|-5~-|
A|-3~-|
E|----|

e|---------------------------------------------------------------------------|
B|---------------------------------------------------------------------------|
G|-5-5-5-5-5-5-5-5-5-5-5-5-5-5-5-5--8-8-8-8-8-8-8-8--10-10-10-10-10-10-10-10-|
D|-5-5-5-5-5-5-5-5-5-5-5-5-5-5-5-5--8-8-8-8-8-8-8-8--10-10-10-10-10-10-10-10-|
A|-3-3-3-3-3-3-3-3-3-3-3-3-3-3-3-3--6-6-6-6-6-6-6-6--8--8--8--8--8--8--8--8--|
E|---------------------------------------------------------------------------|

e|---------------------------------------------------------------------------|
B|---------------------------------------------------------------------------|
G|-5-5-5-5-5-5-5-5-5-5-5-5-5-5-5-5--8-8-8-8-8-8-8-8--10-10-10-10-10-10-10-10-|
D|-5-5-5-5-5-5-5-5-5-5-5-5-5-5-5-5--8-8-8-8-8-8-8-8--10-10-10-10-10-10-10-10-|
A|-3-3-3-3-3-3-3-3-3-3-3-3-3-3-3-3--6-6-6-6-6-6-6-6--8--8--8--8--8--8--8--8--|
E|---------------------------------------------------------------------------|

e|---------------------------------------------------------------------------|
B|---------------------------------------------------------------------------|
G|-5-5-5-5-5-5-5-5-5-5-5-5-5-5-5-5--8-8-8-8-8-8-8-8--10-10-10-10-10-10-10-10-|
D|-5-5-5-5-5-5-5-5-5-5-5-5-5-5-5-5--8-8-8-8-8-8-8-8--10-10-10-10-10-10-10-10-|
A|-3-3-3-3-3-3-3-3-3-3-3-3-3-3-3-3--6-6-6-6-6-6-6-6--8--8--8--8--8--8--8--8--|
E|---------------------------------------------------------------------------|

e|---------------------------------------------------------------------------|
B|---------------------------------------------------------------------------|
G|-5-5-5-5-5-5-5-5-5-5-5-5-5-5-5-5--8-8-8-8-8-8-8-8--10-10-10-10-10-10-10-10-|
D|-5-5-5-5-5-5-5-5-5-5-5-5-5-5-5-5--8-8-8-8-8-8-8-8--10-10-10-10-10-10-10-10-|
A|-3-3-3-3-3-3-3-3-3-3-3-3-3-3-3-3--6-6-6-6-6-6-6-6--8--8--8--8--8--8--8--8--|
E|---------------------------------------------------------------------------|

e|-------------------|
B|-------------------|
G|-5-5--5-5--5-5--5--|
D|-5-5--5-5--5-5--5--|
A|-3-3--3-3--3-3--3--|
E|-------------------|



And that is the whole song! =]

Comments or criticism or whatever... Just leave me a message =]

Thank you.

x
Добавлено: 20.06.2012
Другие материалы по этой песне:
  • Аккорды и текст

Страница создана 20.06.2012
http://primanota.ru/leathermouth/body-snatchers-forever-chords.htm
Привет, Гость.
Предлагаем пройти революционный курс по гитаре.
Подарок от PrimaNota.Ru, забирай!