PrimaNota.ru - самый крупный в мире бесплатный архив песенных текстов, аккордов, табулатур и нот


League Of Legends - The Curse Of The Sad Mummy - таба, видео

Регистрация Запомнить меня
Войти через:  Facebook Google Twitter Vk Yandex Mail.ru

League Of Legends - The Curse Of The Sad Mummy - таба, видео

Печатать
Просмотров: 147
Уроки эстрадного вокала в Санкт-Петербурге
-------------------------------------------------------------------------------
               the the curse of the sad mummy - perf. Prendki
-------------------------------------------------------------------------------
Tabbed by:Prendki

Tuning:Standard
-------------------
Intro
-------------------

e|-----------------------------------------------------------------0h1---0-------|
B|3--3h4-3h4-3--3--3--3--3h4-3h4-3--3--3--3--3h4-3h4-3--3--3-----3-----3----1----|
G|---------------------------------------------------3--------2----------------0-|
D|5----------5--------5----------5--------5----------3--------0------------------|
A|-----------------------------------------------------------------------3-------|
E|-------------------------------------------------------------------------------|

e|-----------------------------------------------------------------0h1---0------|
B|3--3h4-3h4-3--3--3--3--3h4-3h4-3--3--3--3--3h4-3h4-3--3--3-----3-----3----1---|
G|---------------------------------------------------3--------2---------------~0|
D|5----------5--------5----------5--------5----------3--------0-----------------|
A|-----------------------------------------------------------------------3------|
E|------------------------------------------------------------------------------|

--------------------
Song
--------------------
G-moll         B-durr      D-moll         C-durr
Every child in Valoran has heard the tale before,
G-moll         B-durr          F-Durr            C-durr
About the cursed mummy boy who felt his heart no more.
G-moll         B-durr              D-moll        C-durr
So sad and lorn, the helpless lad, Amumu was his name,
G-moll             B-durr           D-moll           C-durr
He ventured out to find a friend and learn about his bane.
...
For many years, young Amumu traveled through the lands,
Determined to make friends, if only they would understand,
But even when Amumu stood upon the ledge of home,
His hope would disappoint him, and he would remain alone.
...
G-moll
But then the curse began to whisper in his ear,
And would confirm what was Amumu's biggest fear,
It pledged that never shall someone become his friend,
It pledged that he shall be alone until his end.
...
-----------------------
Yeah!
-----------------------
Gm B-Durr D-moll C durr Gm B-Durr F-Durr C durr
↓↓↓↓↓↓↓↓↓↓↓↓↓↓↓↓↓↓↓↓↓↓↓↓↓↓↓↓↓↓↓↓↓↓↓↓↓↓↓↓↓↓↓↓↓↓
-----------------------
Please Left Comment
-----------------------
************************************

| /   slide up
| \   slide down
| h   hammer-on
| p   pull-off
| ~   vibrato
| +   harmonic
| x   Mute note
| b   Bend
| pb  Pre-bend
| br  Bend release
| pbr Pre-bend release
| brb Bend release bend

************************************
Добавлено: 14.12.2015
Другие материалы по этой песне:
  • Аккорды и текст

Страница создана 14.12.2015
http://primanota.ru/league-of-legends/curse-of-sad-mummy-chords.htm
Привет, Гость.
Предлагаем пройти революционный курс по гитаре.
Подарок от PrimaNota.Ru, забирай!