PrimaNota.ru - самый крупный в мире бесплатный архив песенных текстов, аккордов, табулатур и нот


Le Vibrazioni - Sono Pi Sereno - бас-таба, видео

Регистрация Запомнить меня
Войти через:  Facebook Google Twitter Vk Yandex Mail.ru

Le Vibrazioni - Sono Pi Sereno - бас-таба, видео

Печатать
Просмотров: 167
Intro:(X2)
B7                 Em          B7                  Em
G-----------------------------------------------------------------------|
D--------------------------------------------------7-7-7----------------|
A9-9-9-7-7-7-6-6-6-------------9-9-9-10-10-10-9-9-9------10-10-10-9-9-9-|
E------------------7-7-7-6-6-6------------------------------------------|

Verse:
B7                  Em          B7                  Em
G----------------------------------------------------------------------|
D---------------------------------------------------7-7-7--------------|
A-9-9-9-7-7-7-6-6-6------------9-9-9-10-10-10-9-9-9-------10-10-10-9-9-|
E------------------7-7-7-6-6-6-----------------------------------------|

B7                    Em              B7
G-------------------------------------------------------------|
D-------------------------------------------------------------|
A-9-9-9-10-10-10-7-7-7----------------9-10-9-10-9-10-6-6-6----|
E----------------------10-10-10-9-9-9-----------------7-7-7---|

Chorus:(X2)
G      C     B7   Am C    D  Em
G------------------------------------------|
D--------------------------7---------------|
A------10-10-9-9-7-7-10-10-----------------|
E-10-10----------------------7-------------|


Bridge

G-----------------------------------     ---------------------1-1-1-4-4-4-|
D-9-9-9-7-7-7-----------------------     -------7-7-7-10-10-10------------|
A--------------------10-10-10-9-9-9-     -9-9-9---------------------------|
E--------------7-7-7----------------  x4 ---------------------------------|x2

Solo:(X3)
C       G           Em      Am     C
G-------0-----------------------------------|
D-------------------------------------------|
A---------9-10-10-10-9-7---7---9-10-7-------|
E-10-10-----------------10---10-------10----|

Outro(Intro)

Intro
Verse
Chorus
Intro
Verse
Chorus
Bridge
Chorus
Solo
Chorus

Saluti a tutti quelli che vibrano come me,buone vibrazioni a tutti
Добавлено: 10.05.2012
Другие материалы по этой песне:
  • Аккорды и текст

Страница создана 14.03.2012
http://primanota.ru/le-vibrazioni/sono-pi-sereno-chords.htm
Привет, Гость.
Предлагаем пройти революционный курс по гитаре.
Подарок от PrimaNota.Ru, забирай!