PrimaNota.ru - самый крупный в мире бесплатный архив песенных текстов, аккордов, табулатур и нот


Le Vibrazioni - Portami Via - текст песни, таба, видео

Регистрация Запомнить меня
Войти через:  Facebook Google Twitter Vk Yandex Mail.ru

Le Vibrazioni - Portami Via - текст песни, таба, видео

Печатать
Просмотров: 174
Le Vibrazioni - Portami Via Guitar Tab*


Intro

e|-----------7-(7)-----|
B|----0-(0)---------8--|
G|-------9------9--(9)-|
D|---------------------|
A|--7------------------|
E|---------------------|


    E-   (Dont Block the String)

e|-------7-----------7---|
B|--8------8----7------7-|
G|----9----------7-------|
D|-----9----------9------|
A|-----------------------|
E|-----------------------|


Ritornello                                                                        x 2
                 slide          slide                 
e|-----------------------------------------------------------------------------|
B|-----------------------------------------------------------------------------|
G|--7-7-7-7-7-7--7-9--9-9-9-9-9-9--11-11-11-11-11-11--11-12--12-12-12-12-12-12-|
D|--5-5-5-5-5-5--5-7--7-7-7-7-7-7--9--9--9--9--9--9---9--9---9--9--9--9--9--9--|
A|-----------------------------------------------------------------------------|
E|-----------------------------------------------------------------------------|


x 2                   slide                   slide                 slide
e|--------------------------------------------------------------------------------------------|
B|--------------------------------------------------------------------------------------------|
G|--14-14-14-14-14-14--14-16--16-16-16-16-16-16--19-19-19-19-19-19--19-21--21-21-21-21-21-21--|
D|--12-12-12-12-12-12--12-14--14-14-14-14-14-14--16-16-16-16-16-16--16-19--19-19-19-19-19-19--|
A|--------------------------------------------------------------------------------------------|
E|--------------------------------------------------------------------------------------------|


Добавлено: 19.07.2012
Другие материалы по этой песне:
  • Аккорды и текст

Страница создана 08.04.2012
http://primanota.ru/le-vibrazioni/portami-via-chords.htm
Привет, Гость.
Предлагаем пройти революционный курс по гитаре.
Подарок от PrimaNota.Ru, забирай!