PrimaNota.ru - самый крупный в мире бесплатный архив песенных текстов, аккордов, табулатур и нот


Le Vibrazioni - Aspettando - аккорды и текст, видео

Регистрация Запомнить меня
Войти через:  Facebook Google Twitter Vk Yandex Mail.ru

Le Vibrazioni - Aspettando - аккорды и текст, видео

Печатать
Просмотров: 91
Aspettando
Le Vibrazioni
		   titolo:ASPETTANDO
artista:LE VIBRAZIONI
album:LE VIBRAZIONI II

***a cura di Alberto Giordano***

DOm-FAm
DOm-SOLm-FAm-DOm-SOL

SOL#m-DOm



intro (x8) -se si vuole suonare sotto LAm-SOL#
----------------------------
----------------------------
----------------------------
-----------------------2----
----------------------------
--0-4-5-5--5-5--8-5-4-------

LAm SOL#
Aspettando
il ciclo di stagioni
LAm SOL#
che è sempre uguale
LAm SOL#
Aspettando
di rimanere
    LAm SOL#
un'altra volta da solo
LAm SOL#
Solo
         LAm SOL#
solo come uno stupido cane
 LAm SOL#
cani che stanno peggio di me
LAm SOL#
tutto il giorno aspettandomi

DOm
non m'importa di chi soffre con me
non m'importa di restare con te
FAm
tu che mi usi come io uso te
DOm
a passare il tempo senza rimpianti
SOLm
non mi dire cosa
FAm
è meglio per noi
     DOm                    SOL
perché il mio cuore se ne frega di te


intro (x4) -se si vuole suonare sotto LAm-SOL# [se ne frega di te, se ne frega di te, se ne frega di te]
----------------------------
----------------------------
----------------------------
-----------------------2----
----------------------------
--0-4-5-5--5-5--8-5-4-------

LAm SOL#
Aspettando
l'inevitabile
LAm SOL#
bella stagione
LAm SOL#
Aspettando
per la macchina
LAm SOL#
il giorno migliore
ma in prigione
LAm SOL#
tu
dovresti stare
LAm SOL#
tu che sei nell'errore
LAm SOL#
di tradire così
colui che invece
LAm SOL#
resterebbe comunque sempre al tuo fianco


DOm
non m'importa di chi soffre con me
non m'importa di restare con te
FAm
tu che mi usi come io uso te
DOm
a passare il tempo senza rimpianti
SOLm
non mi dire cosa
FAm
è meglio per noi
     DOm                    SOL
perché il mio cuore se ne frega di te



SOL#
Respira lentamente
DOm
e pensa che
SOL#                   DOm
c'è chi sta molto, molto peggio di te
SOL#         SOL
c'è chi viene abbandonato
MI
in mezzo ad una strada
FA
o in mezzo a un prato
SOL#
sfortunato


intro (x16) -se si vuole suonare sotto LAm-SOL# [CANTARE:se ne frega di te, se ne frega di te, se ne frega di te]
----------------------------
----------------------------
----------------------------
-----------------------2----
----------------------------
--0-4-5-5--5-5--8-5-4-------

finale
----------------------------
----------------------------
----------------------------
---------------------------
----------------------------
--0-4-5-5--5-5--8-5-4--4-----

	     
Добавлено: 27.09.2013
Другие материалы по этой песне:
  • Аккорды и текст

Страница создана 07.05.2012
http://primanota.ru/le-vibrazioni/aspettando-chords.htm
Привет, Гость.
Предлагаем пройти революционный курс по гитаре.
Подарок от PrimaNota.Ru, забирай!