PrimaNota.ru - самый крупный в мире бесплатный архив песенных текстов, аккордов, табулатур и нот


Le Tigre - Eau Dbedroom Dancing - текст песни, таба, бас-таба, видео

Регистрация Запомнить меня
Войти через:  Facebook Google Twitter Vk Yandex Mail.ru

Le Tigre - Eau Dbedroom Dancing - текст песни, таба, бас-таба, видео

Печатать
Просмотров: 167
Le Tigre - Eau D'Bedroom Dancing
Tabbed By: Karina

It's my first tab, and it's probably wrong, so if anyone has any corrections feel free 
make them.

* Let Ring

e|-----------------------------------------------------------|
b|-----------------------------------------------------------|
g|----6*-----6*--------6*---------8-6*-----8-6*-----6*-------|
d|--6-----66-----(6)66---------66-------66--------6----------|
a|------------------------8*---------------------------------|
E|-----------------------------------------------------------|

e|------------------------------------------------------|
b|---------444-------444-------444-------444-------444--|
g|--6-666------6-666-----6-666-----6-666-----6-666------|
d|------------------------------------------------------|
a|------------------------------------------------------|
E|------------------------------------------------------|

e|----------------------------------------|
b|--------444-------444-------------------|
g|--6-666-----6-666-----66666666----------|
d|----------------------------------------|
a|----------------------------------------|
E|------------------------------------*4--|

e|-----------------------|
b|-----------------------|
g|----6*----6*-----8-----|
d|--6-----6-----66---6*--|
a|-----------------------|
E|-----------------------|

e|-------------------------------|
b|--------6----------------------|
g|----8-6---8---66-8888---6--88--|
d|--8---------8---------6--------|
a|-------------------------------|
E|-------------------------------|

e|----------------------------------------------------|
b|-------444------444------444------444--4-6-4--------|
g|--6666-----6666-----6666-----6666------------66-----|
d|----------------------------------------------------|
a|----------------------------------------------------|
E|-------------------------------------------------4--|

e|--------------------------|
b|--------------------------|
g|--6-8-6----6*---888---6*--|
d|--------66----------6-----|
a|--------------------------|
E|--------------------------|

e|---------------------------------------------------------------|
b|---------------------------------------------------------------|
g|--------333-------3-6-------333-------3-6-------333-------3-6--|
d|--6-666-----6-666-----6-666-----6-666-----6-666-----6-666------|
a|---------------------------------------------------------------|
E|---------------------------------------------------------------|

e|----------------------------------------------------------------|
b|--------444-------444--------444-------444-------444-------444--|
g|--6-666-----6-666------6-666-----6-666-----6-666-----6-666------|
d|----------------------------------------------------------------|
a|----------------------------------------------------------------|
E|----------------------------------------------------------------|

e|----------------------------------|
b|----------------------------------|
g|------------------6-8-6-----------|
d|--6*--66666666--6-------6--66666--|
a|----------------------------------|
E|----------------------------------|

e|------------------------------------------------|
b|-----6----6----6----66----6---------------------|
g|--88---88---88---88----88---88--8--66--888------|
d|-------------------------------------------6----|
a|---------------------------------------------6--|
E|------------------------------------------------|

e|------------------------------------------------|
b|------------------------------------------------|
g|----6*--88-6-------6*---------------------------|
d|--6----------6---6------------------------------|
a|------------------------------------------------|
E|------------------------------------------------|
Добавлено: 04.07.2012
Другие материалы по этой песне:
  • Аккорды и текст

Страница создана 02.06.2012
http://primanota.ru/le-tigre/eau-dbedroom-dancing-chords.htm
Привет, Гость.
Предлагаем пройти революционный курс по гитаре.
Подарок от PrimaNota.Ru, забирай!