PrimaNota.ru - самый крупный в мире бесплатный архив песенных текстов, аккордов, табулатур и нот


Le Fly - Suck It Or Lick It - бас-таба, видео

Регистрация Запомнить меня
Войти через:  Facebook Google Twitter Vk Yandex Mail.ru

Le Fly - Suck It Or Lick It - бас-таба, видео

Печатать
Просмотров: 79
Hallo Leute des guten Geschmacks! :D
Ich freue mich, der Erste zu sein, der ein Lied von Le Fly hochlädt.
Deshalb fordert ultimate-guitar einen Link der Internetseite: http://www.lefly.de/
Zugleich muss ich dazu sagen, es war sehr schwierig, die verschiedenen Riffs 
rauszuhören. Ich hoffe, sie sind richtig.
Es klingt auf jeden Fall ziemlich geil und das ist doch die Hauptsache.
Bitte schaut euch auch andere Tabs von mir an und vergesst nicht, eine gute 
Bewertung abzugeben! ;)

Enjoy!

Le Fly - Suck it or Lick it

Intro (0:00 - 0:16)
G|----------------|--3-------------|----------------|----------------|
D|------------0---|----------5~~~~~|------------0---|------0---------|
A|----------0---0-|1---1-----------|----------0---0-|1-1-1-----------| 2x
D|0~~~0~~~0-------|------3-5-------|0~~~0~~~0-------|--------5-5-5~~~|
  Q   Q   E E E E  E E E E E Q.     Q   Q   E E E E  E E E E E E Q

Verse 1 (0:17 - 0:49)
G|----------------|--3-3~~~--------|----------------|--3-3~~---------|
D|------------0---|----------5-5~~~|------------0---|---------5-5~~--|
A|----------0---0-|1---------------|----------0---0-|1---------------|
D|----0~~~0-------|--------5-------|----0~~~0-------|-------5------0-|
  Q   Q   E E E E  E E Q   E E Q    Q   Q   E E E E  E E E. E E E. E 

G|----------------|----------------|----------------|----------------|
D|----0~~~0---0---|----------5~~~--|0~~~0~~~0---0---|----------------|
A|----------3---0-|1-1-1~~~--------|----------3---0-|1-1-1~~~--------|
D|----------------|--------5-----0-|----------------|--------5-5-5~~~|
  Q   Q   E E E E  E E Q   E Q   E  Q   Q   E E E E  E E Q   E E Q

G|----------------|--3-------------|----------------|----------------|
D|------------0---|----------5~~~~~|------------0---|----------------|
A|----------0---0-|1---1-----------|----------0---0-|1-1-1~~~--------|
D|0~~~0~~~0-------|--------5-------|0~~~0~~~0-------|--------5-5-5~~~|
  Q   Q   E E E E  E E E E E Q.     Q   Q   E E E E  E E Q   E E Q

G|----------------|--3-------------|----------------|----------------|
D|------------0---|----------5~~~~~|------------0---|----------------|
A|----------0---0-|1---1-----------|----------0---0-|1-1-1~~~--------|
D|0~~~0~~~0-------|--------5-------|0~~~0~~~0-------|--------5-5-5~~~|
  Q   Q   E E E E  E E E E E Q.     Q   Q   E E E E  E E Q   E E Q

Pre-Chorus (0:49 - 1:05)
G|----------------|----------------|----------------|----------------|
D|----------------|----------------|----------------|----------------|
A|5--5--5---------|5--5--5---------|5--5--5---------|5--5--5-1~~~~~~~|
D|--------0-------|--------5~~~~~~~|--------0-------|----------------|
  E. E. E E Q.     E. E. E H        E. E. E E Q.     E. E. E H

G|----------------|----------------|----------------|----------------|
D|----------------|----------------|----------------|----------------|
A|5--5--5---------|5--5--5---------|5--5--5---------|5--5--5-3~~~~~~~|
D|--------0-------|--------5~~~~~~~|--------0-------|----------------|
  E. E. E E Q.     E. E. E H        E. E. E E Q.     E. E. E H

Chorus (1:06 - 1:22)
G|----------------|----3-----------|
D|----------------|------------5---|
A|----5~~~5-3-5~~~|1-1---1---------| 4x
D|0-0-------------|--------5-5---5-|
  E E Q   E E Q    E E E E E E E E

Verse 2 (1:22 - 1:54)
G|----------------|--3-------------|----------------|----------------|
D|----------0-----|------0-----5~~~|------------0---|------0---------|
A|--------------0-|1---1-----------|----------0---0-|1-1-1-----------|
D|----0~~~0---0---|--------5-5-----|0~~~0~~~0-------|--------5-5~~~0-|
  Q   Q   E E E E  E E E E E E Q    Q   Q   E E E E  E E E E E Q   E

G|----------------|----------------|----------------|----------------|
D|----0~~~0---0---|----------5~~~--|0~~~0~~~0---0---|----------------|
A|----------3---0-|1-1-1~~~--------|----------3---0-|1-1-1~~~--------|
D|----------------|--------5-----0-|----------------|--------5-5-5~~~|
  Q   Q   E E E E  E E Q   E Q   E  Q   Q   E E E E  E E Q   E E Q

G|----------------|----------------|----------------|----------------|
D|------------0---|----------5~~~~~|------------0---|----------------|
A|----------0---0-|1-1-1-----------|----------0---0-|1-1-1~~~--------|
D|0~~~0~~~0-------|--------5-------|0~~~0~~~0-------|--------5-5-5~~~|
  Q   Q   E E E E  E E E E E Q.     Q   Q   E E E E  E E Q   E E Q

G|----------------|--3-------------|----------------|----------------|
D|------------0---|----------5~~~~~|------------0---|----------------|
A|----------0---0-|1---1-----------|----------0---0-|1-1-1~~~--------|
D|0~~~0~~~0-------|--------5-------|0~~~0~~~0-------|--------5-5-5~~~|
  Q   Q   E E E E  E E E E E Q.     Q   Q   E E E E  E E Q   E E Q

Pre-Chorus (1:55 - 2:11)(bis auf ein Merkmal genau gleich wie vorher)
G|----------------|----------------|----------------|----------------|
D|----------------|----------------|----------------|----------------|
A|5--5--5---------|5--5--5---------|5--5--5---------|5--5--5-1~~~~~~~|
D|--------0-------|--------5~~~~~~~|--------0-------|----------------|
  E. E. E E Q.     E. E. E H        E. E. E E Q.     E. E. E H

G|----------------|----------------|----------------|----------------|
D|----------------|----------------|----------------|----------------|
A|5--5--5---------|5--5--5---------|5--5--5---------|5--5--5-3~~~~~~~|
D|--------0~~~~~~~|--------5~~~~~~~|--------0-------|----------------|
  E. E. E H        E. E. E H        E. E. E E Q.     E. E. E H

Chorus (identisch) (2:11 - 2:28)

Verse 3 (2:28 - 2:44)
G|----------------|--3-------------|----------------|--3-------------|
D|0~~~0~~~0---0---|----------5~~~~~|0~~~0~~~0---0---|----------5~~~~~|
A|----------3---0-|1---1-----------|----------3---0-|1---1-----------|
D|----------------|------0-5-------|----------------|------0-5-------|
  Q   Q   E E E E  E E E E E Q.     Q   Q   E E E E  E E E E E Q.

G|----------------|--3-------------|----------------|--3-------------|
D|0~~~0~~~0---0---|----------5~~~~~|0~~~0~~~0---0---|----------------|
A|----------3---0-|1---1-----------|----------3---0-|1---1-----------|
D|----------------|------0-5-------|----------------|------0-----5b/0|
  Q   Q   E E E E  E E E E E Q.     Q   Q   E E E E  E E E E Q   Q

Chorus (identisch) (2:45 - 3:01)

Outro Riff (3:01 - 3:37)
G|----------------|----------------|----------------|----------------|
D|----------------|----------------|----------------|----------------|
A|5--5------------|5--5----0~~~----|5--5------------|5--5----3~~~3~~~|
D|------0-3--5--0-|------0-----0~~~|------0-3--5--0-|------0---------|
  E. E. E E. E. E  E. E. E Q   Q    E. E. E E. E. E  E. E. E Q   Q

G|----------------|----------------|----------------|----------------|
D|----------------|----------------|----------------|----------------|
A|5--5------------|5--5----0~~~----|5--5------------|3-3-3-3-3-3-3-3-|
D|------0-3--5--0-|------0-----0~~~|------0-3--5--0-|----------------|
  E. E. E E. E. E  E. E. E Q   Q    E. E. E E. E. E  E E E E E E E E 

G|----------------|----------------|----------------|----------------|
D|----------------|----------------|----------------|----------------|
A|5--5------------|5--5----0~~~----|5--5------------|5--5----3~~~3~~~|
D|------0-3--03-55|------0-----0~~~|------0-3--03-55|------0---------|
  E. E. E E. SE SS E. E. E Q   Q    E. E. E E. SE SS E. E. E Q   Q

G|----------------|----------------|----------------|----------------|
D|----------------|----------------|----------------|----------------|
A|5--5------------|5--5----0~~~----|5--5------------|33----33----3333|
D|------0-3--03-55|------0-----0~~~|------0-3--03-55|----------------|
  E. E. E E. SE SS E. E. E Q   Q    E. E. E E. SE SS SSQ   SSQ   SSSS

G|----------------|
D|----------------|
A|5~~~~~~~--------|
D|----------------|
  H


Legend:

F = Full note
H = Half note
Q = Quarter note
E = Eighth note
S = Sixteenth note
. = makes the note a half longer

Vergesst nicht, eure Bewertung abzugeben! Danke! :)
Добавлено: 21.11.2013
Вам также может быть интересно:
Другие материалы по этой песне:
  • Аккорды и текст

Страница создана 21.11.2013
http://primanota.ru/le-fly/suck-it-or-lick-it-chords.htm
Привет, Гость.
Предлагаем пройти революционный курс по гитаре.
Подарок от PrimaNota.Ru, забирай!