PrimaNota.ru - самый крупный в мире бесплатный архив песенных текстов, аккордов, табулатур и нот


Le Butcherettes - Henry Dont Got Love - аккорды и текст, видео

Регистрация Запомнить меня
Войти через:  Facebook Google Twitter Vk Yandex Mail.ru

Le Butcherettes - Henry Dont Got Love - аккорды и текст, видео

Печатать
Просмотров: 126
Henry Dont Got Love
Le Butcherettes
Intro:

B|------------------------------------------------|
G|--12-10-12-14-15-14-12-10-12--10-9-10-12-14-10--|
D|------------------------------------------------|

B|-----------------------------------------------|
G|--12-10-12-14-15-14-12-10-12--10-9-10-12-14----|
D|--------------------------------------------3--|
A|--------------------------------------------3--|
E|--------------------------------------------1--|

G5              F5     E5 F5 E5 F5
Youre afraid to love me
G5                   F5     E5 F5 E5 F5
Youre afraid to even know me
G5             F5             E5 F5 E5 F5
We walk on the street at night
G5                     F5         E5 F5 E5 F5
Tell your friends that Im a fright

A#5 G5
Im  green when you kick me
A#5                                G5
Your man thinks hes bigger than my law
      D#5          A#5
Youre ashamed of me
                        G5 A#5 G5  G5  G5
Do, do, do, do do, do...       do, do, do

B|------------------------------------------------|
G|--12-10-12-14-15-14-12-10-12--10-9-10-12-14-10--|
D|------------------------------------------------|

B|-----------------------------------------------|
G|--12-10-12-14-15-14-12-10-12--10-9-10-12-14----|
D|--------------------------------------------3--|
A|--------------------------------------------3--|
E|--------------------------------------------1--|

G5              F5     E5 F5 E5 F5
Youre afraid to bite me
G5                   F5      E5 F5 E5 F5
Youre afraid to even touch me
G5             F5          E5 F5 E5 F5
We walk in the zoo at night
G5                   F5         E5 F5 E5 F5
Tell your bears that Im a fright

A#5 G5
Im  green when you kick me
A#5                                G5
Your man thinks hes bigger than my law
      D#5          A#5
Youre ashamed of me
                        G5 A#5 G5  G5  G5
Do, do, do, do do, do...       do, do, do

F5 G5 (x4)

         F5 G5
Your guns
           F5 G5
Are made of
               F5 G5
Deadly feathers
        F5 G5
My death
                F5 G5
Asphyxiates your
              F5 G5
Golden matters
            F5 G5
Henry Miller
              F5 G5
Goes in deeper
                F5 G5
Deep like a scab
                  F5 G5
Rich like a knight

G5 F5

G5            F5
Your eyes are steep
G5         F5
My love is cold

A#5 G5
Im  green when you kick me
A#5                                G5
Your man thinks hes bigger than my law
      D#5          A#5
Youre ashamed of me
                        G5 A#5 G5 A#5 G5 A#5 G5  G5  G5
Do, do, do, do do, do...                     do, do, do
Добавлено: 30.07.2013
Другие материалы по этой песне:
  • Аккорды и текст

Страница создана 30.07.2013
http://primanota.ru/le-butcherettes/henry-dont-got-love-chords.htm
Привет, Гость.
Предлагаем пройти революционный курс по гитаре.
Подарок от PrimaNota.Ru, забирай!