PrimaNota.ru - самый крупный в мире бесплатный архив песенных текстов, аккордов, табулатур и нот


The Lazys - Shake It Like You Mean It - таба, видео

Регистрация Запомнить меня
Войти через:  Facebook Google Twitter Vk Yandex Mail.ru

The Lazys - Shake It Like You Mean It - таба, видео

Печатать
Просмотров: 86
-------------------------------------------------------------------------------
                     Shake It Like You Mean Iy BY The Lazys
-------------------------------------------------------------------------------

Tabbed by: scottco86

Tuning: half-step down


intro/repeating lick
e|---------------------------------------------------------------------------|
B|-3-5-5-3-5-5-3-5---3-3-3-2---/7-7-5---5-5-----5-5---5----------------------|
G|-4-4-4-4-4-4-4-4---2-2-0-2---/7-7-6-7-6-6-7-5-2-0---4----------------------|
D|------------------------------------7-----7-5-----0-2----------------------|
A|---------------------------------------------------------------------------|
E|---------------------------------------------------------------------------|
The chords behind the riff are E - D - A - D - A - E


verse (listen for timing but these are the chords)
e|---------------------------------------------------------------------------|
B|-5-------3---2-------------------------------------------------------------|
G|-4-------2---2-------------------------------------------------------------|
D|---------------------------------------------------------------------------|
A|---------------------------------------------------------------------------|
E|---------------------------------------------------------------------------|
The second guitar just hits E chord and lets it drone behind each line of the verse


pre-chorus
e|-------------0-0-----------------------------------------------------------|
B|-3-----------0-0-----REPEAT---------------2brp0-2-0------------------------|
G|-2-----2-------------THREE-----4-4-4-4----2brp0-2-0------------------------|
D|-0-----2---2---------TIMES-----4-4-4-4--------------2-0--------------------|
A|---4-2-0-2-2-------------------2-2-2-2-------------------------------------|
E|-----------0---------------------------------------------------------------|

chorus
e|---------------------------------------------------------------------------|
B|----3-----3---------5------------------------------------------------------|
G|----2--2--2--2--2-0-4------------------------------------------------------|
D|-2--0--2--0--2------2------------------------------------------------------|
A|-2-----0-----0-------------------------------------------------------------|
E|-0-------------------------------------------------------------------------|

back to intro lick
2nd verse (same as 1st)

2nd prechorus (rhythm same as first)
prechorus 2 licks between verses
e|---------------|-----3----|----------------------|-------------------------|
B|-3b-3-0--------|-3h5---5--|-15b-15----15-15------|------2brp0-2-0----------|
G|-2b-2-0-2-0----|----------|-14b-14p12-14-12------|--4---2brp0-2-0----------|
D|------------2--|----------|-----------------12\--|--4-------------2-0------|
A|---------------|----------|----------------------|--2----------------------|
E|---------------|----------|----------------------|-------------------------|

back to chorus 2

solo
e|------7---------7-|------7---------7--|--12br-10h12p10----10---------------|
B|----7---10p7-10---|----7---10p7-10----|----------------12----12------------|
G|-9b---------------|-9b----------------|------------------------------------|
D|------------------|-------------------|------------------------------------|
A|------------------|-------------------|------------------------------------|
E|------------------|-------------------|------------------------------------|

e|----------7--------|--15b-15-12----12--------------------------------------|
B|-7h10p7---7-9-7-9--|------------15----15-----------------------------------|
G|--------9---9-7-9--|---------------------14-12-14p12----12-14--------------|
D|-------------------|---------------------------------14--------------------|
A|-------------------|-------------------------------------------------------|
E|-------------------|-------------------------------------------------------|

e|-----------------------5-5-------------------------------------------------|
B|-------------------5h8-----8-10b-10-8--------------------------------------|
G|-2--------2-2--4/7--------------------9------------------------------------|
D|-2----2-4------------------------------------------------------------------|
A|-0-2-4---------------------------------------------------------------------|
E|---------------------------------------------------------------------------|
guitar holds the last note of the solo while the 2nd guitar goes to the intro lick

3rd chorus (same as 1st chorus)
ends with the intro lick
Добавлено: 26.09.2015
Другие материалы по этой песне:
  • Аккорды и текст

Страница создана 26.09.2015
http://primanota.ru/lazys/shake-it-like-you-mean-it-chords.htm
Привет, Гость.
Предлагаем пройти революционный курс по гитаре.
Подарок от PrimaNota.Ru, забирай!