PrimaNota.ru - самый крупный в мире бесплатный архив песенных текстов, аккордов, табулатур и нот


Lazy Sods - Im A Punk - аккорды и текст, таба, видео

Регистрация Запомнить меня
Войти через:  Facebook Google Twitter Vk Yandex Mail.ru

Lazy Sods - Im A Punk - аккорды и текст, таба, видео

Печатать
Просмотров: 136
Im A Punk
Lazy Sods

Date: Fri, 30 Jan 1998 13:20:36 -0500
From: Boris 
Subject: TAB: Im a punk by the lazy sods
Artist: The Lazy Sods
Song: I'm a punk
Album: You Make Me Mad
Tabbed by: Antonino Lombardo (izimbra@geocities.com)

 Due to popular demand, I thought i would tab I'm a punk by the infamous 
underground punk group, The Lazy Sods.
 It's pretty difficult to play, but if you concentrate and practice often, 
I think you'll be able to play it.

Im not going to tell you how many times to strum each chord, cause if you 
need to know that you shouldnt be playing the guitar.
-------------------------------------

-------------------------------------
----Verse:
e------------------------------------
b------------------------------------
g------------------------------------
d---------6---7----------------------
a--4------4---5----------------------
e--2---------------------------------

-------------------------------------
----Chorus:
-------------------------------------

e------------------------------------
b-------------2----------------------
g-------------2----------------------
d----5--4--3--2----------------------
a----3--2--1--0----------------------
e------------------------------------

Добавлено: 18.01.2014
Другие материалы по этой песне:
  • Аккорды и текст

Страница создана 16.06.2012
http://primanota.ru/lazy-sods/im-a-punk-chords.htm
Привет, Гость.
Предлагаем пройти революционный курс по гитаре.
Подарок от PrimaNota.Ru, забирай!