PrimaNota.ru - самый крупный в мире бесплатный архив песенных текстов, аккордов, табулатур и нот


Layton Turner - After You Have Gone - бас-таба, видео

Регистрация Запомнить меня
Войти через:  Facebook Google Twitter Vk Yandex Mail.ru

Layton Turner - After You Have Gone - бас-таба, видео

Печатать
Просмотров: 112
turner layton-after_you_have_gone

Basstab by Jan Bjorklund, Finland
 jani_bjorklund@yahoo.se>
You are welcome to request for basstabs!
Fingering and positions as suggested by TablEdit,
please use common sense!

TablEdited by Jan Bjorklund
Tuning : E A D G 	Time Signature: 4/4

 |               |               |               |    
           
|--------------------------------3-------------------------------|
|1---------------------------------------------------------------|
|----------------------------------------------------------------|
|----------------------------------------------------------------|

 |               |               |               |    
           
|--------------------------------3-------------------------------|
|1---------------------------------------------------------------|
|----------------------------------------------------------------|
|----------------------------------------------------------------|

 |               |               |               |    
           
|--------------------------------8-------------------------------|
|6---------------------------------------------------------------|
|----------------------------------------------------------------|
|----------------------------------------------------------------|

 |               |               |               |    
           
|--------------------------------8-------------------------------|
|6---------------------------------------------------------------|
|----------------------------------------------------------------|
|----------------------------------------------------------------|

 |               |               |               |    
           
|----------------------------------------------------------------|
|0-----------------------------------------------0---------------|
|----------------------------------------------------------------|
|----------------------------------------------------------------|

 |               |               |               |    
           
|--------------------------------2-------------------------------|
|----------------------------------------------------------------|
|----------------------------------------------------------------|
|----------------------------------------------------------------|

 |               |               |               |    
           
|--------------------------------7-------------------------------|
|5---------------------------------------------------------------|
|----------------------------------------------------------------|
|----------------------------------------------------------------|

 |               |               |               |    
           
|12--------------------------------------------------------------|
|--------------------------------12------------------------------|
|----------------------------------------------------------------|
|----------------------------------------------------------------|

 |               |               |               |    
           
|--------------------------------0-------------------------------|
|----------------------------------------------------------------|
|3---------------------------------------------------------------|
|----------------------------------------------------------------|

 |               |               |               |    
           
|5---------------------------------------------------------------|
|--------------------------------5-------------------------------|
|----------------------------------------------------------------|
|----------------------------------------------------------------|

 |               |               |               |    
           
|--------------------------------5-------------------------------|
|3---------------------------------------------------------------|
|----------------------------------------------------------------|
|----------------------------------------------------------------|

 |               |               |               |    
           
|--------------------------------5-------------------------------|
|3---------------------------------------------------------------|
|----------------------------------------------------------------|
|----------------------------------------------------------------|

 |               |               |               |    
           
|----------------------------------------------------------------|
|--------------------------------3-------------------------------|
|1---------------------------------------------------------------|
|----------------------------------------------------------------|

 |               |               |               |    
           
|3---------------------------------------------------------------|
|--------------------------------3-------------------------------|
|----------------------------------------------------------------|
|----------------------------------------------------------------|

 |               |               |               |    
           
|--------------------------------5-------------------------------|
|3---------------------------3-----------------------------------|
|----------------------------------------------------------------|
|----------------------------------------------------------------|

 |               |               |               |    
           
|----------------------------------------------------------------|
|----------------3---------------0---------------3---------------|
|1---------------------------------------------------------------|
|----------------------------------------------------------------|

 |               |               |               |    
           
|--------------------------------3-------------------------------|
|1---------------------------------------------------------------|
|----------------------------------------------------------------|
|----------------------------------------------------------------|

 |               |               |               |    
           
|--------------------------------3-------------------------------|
|1-------------------------1-------------------------------------|
|----------------------------------------------------------------|
|----------------------------------------------------------------|

 |               |               |               |    
           
|--------------------------------8-------------------------------|
|6---------------------------------------------------------------|
|----------------------------------------------------------------|
|----------------------------------------------------------------|

 |               |               |               |    
           
|--------------------------------8-------------------------------|
|6---------------------------------------------------------------|
|----------------------------------------------------------------|
|----------------------------------------------------------------|

 |               |               |               |    
           
|----------------------------------------------------------------|
|0---------------------------------------------------------------|
|--------------------------------0-------------------------------|
|----------------------------------------------------------------|

 |               |               |               |    
           
|--------------------------------2-------------------------------|
|0-----------------------------------------------0---------------|
|----------------------------------------------------------------|
|----------------------------------------------------------------|

 |               |               |               |    
           
|--------------------------------7-------------------------------|
|5---------------------------------------------------------------|
|----------------------------------------------------------------|
|----------------------------------------------------------------|

 |               |               |               |    
           
|--------------------------------7-------------------------------|
|5---------------------------------------------------------------|
|----------------------------------------------------------------|
|--------------------------3-------------------------------------|

 |               |               |               |    
           
|--------------------------------0-------------------------------|
|----------------------------------------------------------------|
|3---------------------------------------------------------------|
|----------------------------------------------------------------|

 |               |               |               |    
           
|--------------------------------7-------------------------------|
|5---------------------------------------------------------------|
|----------------------------------------------------------------|
|----------------------------------------------------------------|

 |               |               |               |    
           
|----------------------------------------------------------------|
|----------------------------------------------------------------|
|3---------------------------------------------------------------|
|----------------------------------------------------------------|

 |               |               |               |    
           
|--------------------------------8-------------------------------|
|6---------------------------------------------------------------|
|----------------------------------------------------------------|
|----------------------------------------------------------------|

 |               |               |               |    
           
|----------------------------------------------------------------|
|----------------------------------------------------------------|
|1---------------------------------------------------------------|
|----------------------------------------------------------------|

 |               |               |               |    
           
|--------------------------------2-------------------------------|
|0---------------------------------------------------------------|
|----------------------------------------------------------------|
|----------------------------------------------------------------|

 |               |               |               |    
           
|12--------------------------------------------------------------|
|----------------------------------------------------------------|
|--------------------------------10------------------------------|
|----------------------------------------------------------------|

 |               |               |               |    
           
|9---------------------------------------------------------------|
|----------------------------------------------------------------|
|--------------------------------0-------------------------------|
|----------------------------------------------------------------|

 |               |               |               |    
           
|----------------------------------------------------------1-----|
|----------------------------------------------------------------|
|----------------------------------------------------------------|
|----------------------------------------------------------------|

 |               |               |               |    
           
|--------------------------------7-------------------------------|
|5---------------------------5-----------------------------------|
|----------------------------------------------------------------|
|----------------------------------------------------------------|

 |               |               |               |    
           
|--------------------------------0-------------------------------|
|----------------------------------------------------------------|
|3---------------------------3-----------------------------------|
|----------------------------------------------------------------|

 |               |               |               |    
           
|--------------------------------5-------------------------------|
|3---------------------------------------------------------------|
|----------------------------------------------------------------|
|----------------------------------------------------------------|

 |               |               |               |    
           
|----------------------------------------------------------------|
|--------------------------------3-------------------------------|
|1---------------------------------------------------------------|
|----------------------------------------------------------------|

 |               |               |               |    
           
|----------------------------------------------------------------|
|--------------------------------3-------------------------------|
|1-------------------------1-------------------------------------|
|----------------------------------------------------------------|

 |               |               |               |    
           
|----------------------------------------------------------------|
|3---------------------------------------------------------------|
|----------------------------------------------------------------|
|----------------------------------------------------------------|

 |               |               |               |    
           
|----------------------------------------------------------------|
|--------------------------------3-----------------------3-------|
|1---------------------------------------------------------------|
|----------------------------------------------------------------|

 |               |               |               |    
           
|----------------------------------------------------------------|
|1---------------2---------------3---------------4---------------|
|----------------------------------------------------------------|
|----------------------------------------------------------------|

 |               |               |               |    
           
|0---------------1---------------2---------------3-----------1---|
|----------------------------------------------------------------|
|----------------------------------------------------------------|
|----------------------------------------------------------------|

 |               |               |               |    
           
|--------------------------------5---------------8---------------|
|----------------8-----------------------------------------------|
|----------------------------------------------------------------|
|----------------------------------------------------------------|

 |               |               |               |    
           
|13--------------11--------------10------------------------------|
|------------------------------------------------13--------------|
|----------------------------------------------------------------|
|------------------------------------------------------------10--|

 |               |               |               |    
           
|----------------7-----------------------------------------------|
|--------------------------------7---------------5---------------|
|----------------------------------------------------------------|
|----------------------------------------------------------------|

 |               |               |               |    
           
|----------------0---------------2-------------------------------|
|3---------------------------------------------------------------|
|------------------------------------------------0---------------|
|----------------------------------------------------------------|

 |               |               |               |    
           
|0---------------1---------------2---------------3---------------|
|----------------------------------------------------------------|
|----------------------------------------------------------------|
|----------------------------------------------------------------|

 |               |               |               |    
           
|4---------------5---------------6---------------7---------------|
|----------------------------------------------------------------|
|----------------------------------------------------------------|
|----------------------------------------------------------------|

 |               |               |               |    
           
|----------------------------------------------------------------|
|--------------------------------0---------------1---------------|
|3---------------4-----------------------------------------------|
|----------------------------------------------------------------|

 |               |               |               |    
           
|------------------------------------------------0---------------|
|2---------------3---------------4---------------------------3---|
|----------------------------------------------------------------|
|----------------------------------------------------------------|

 |               |               |               |    
           
|--------------------------------0---------------1---------------|
|----------------4-----------------------------------------------|
|----------------------------------------------------------------|
|----------------------------------------------------------------|

 |               |               |               |    
           
|2---------------3---------------4---------------5---------------|
|----------------------------------------------------------------|
|----------------------------------------------------------------|
|----------------------------------------------------------------|

 |               |               |               |    
           
|3---------------2---------------2---------------0---------------|
|----------------------------------------------------------------|
|----------------------------------------------------------------|
|----------------------------------------------------------------|

 |               |               |               |    
           
|----------------------------------------------------------------|
|4---------------2---------------3-----------------3-------------|
|----------------------------------------------------------------|
|----------------------------------------------------------------|

 |               |               |               |    
           
|------------------------------------------------5---------------|
|3---------------5---------------6---------------------------3---|
|----------------------------------------------------------------|
|------------1---------------------------------------------------|

 |               |               |               |    
           
|----------------------------------------------------------------|
|------------------------------------------------0-----------1---|
|1---------------3---------------4-------------------------------|
|----------------------------------------------------------------|

 |               |               |               |    
           
|----------------3---------------0-------------------------------|
|------------------------------------------------3---------------|
|----------------------------------------------------------------|
|----------------------------------------------------------------|

 |               |               |               |    
           
|------------------------------------------------0---------------|
|1---------------3---------------4-------------------------------|
|----------------------------------------------------------------|
|----------------------------------------------------------------|

 |               |               |               |    
           
|--------------------------------5---------------8---------------|
|6---------------8-----------------------------------------------|
|----------------------------------------------------------------|
|----------------------------------------------------------------|

 |               |               |               |    
           
|13--------------------------------------------------------------|
|----------------13--------------10------------------------------|
|------------------------------------------------11--------------|
|----------------------------------------------------------------|

 |               |               |               |    
           
|----------------2-----------------------------------------------|
|0-------------------------------3-------------------------------|
|------------------------------------------------0---------------|
|----------------------------------------------------------------|

 |               |               |               |    
           
|------------------------------------------------2---------------|
|0---------------2---------------3-------------------------------|
|----------------------------------------------------------------|
|----------------------------------------------------------------|

 |               |               |               |    
           
|--------------------------------4---------------7---------------|
|5---------------7-----------------------------------------------|
|----------------------------------------------------------------|
|----------------------------------------------------------------|

 |               |               |               |    
           
|12--------------10--------------9-------------------------------|
|------------------------------------------------12--------------|
|----------------------------------------------------------------|
|----------------------------------------------------------------|

 |               |               |               |    
           
|------------------------------------------------0---------------|
|----------------0---------------1-------------------------------|
|3-----------3-----------------------------------------------3---|
|----------------------------------------------------------------|

 |               |               |               |    
           
|12--------------10----------------------------------------------|
|--------------------------------13--------------12--------------|
|----------------------------------------------------------------|
|----------------------------------------------------------------|

 |               |               |               |    
           
|5---------------------------------------------------------------|
|------------------------------------------------5---------------|
|----------------3---------------6-------------------------------|
|----------------------------------------------------------------|

 |               |               |               |    
           
|--------------------------------5---------------8---------------|
|6---------------8-----------------------------------------------|
|------------6-------------------------------6---------------6---|
|----------------------------------------------------------------|

 |               |               |               |    
           
|----------------------------------------------------------------|
|----------------3---------------0-------------------------------|
|1-----------------------------------------------1---------------|
|------------------------------------------------------------1---|

 |               |               |               |    
           
|------------------------------------------------2---------------|
|0---------------2---------------4-------------------------------|
|------------0-------------------------------0---------------0---|
|----------------------------------------------------------------|

 |               |               |               |    
           
|----------------7-------------------------------7---------------|
|5-------------------------------5-------------------------------|
|--------------------------------------------5---------------5---|
|----------------------------------------------------------------|

 |               |               |               |    
           
|----------------------------------------------------------------|
|2---------------2-------------------------------2-----------0---|
|--------------------------------0-------------------------------|
|------------0---------------------------------------------------|

 |               |               |               |    
           
|----------------2-----------------------------------------------|
|--------------------------------3---------------0---------------|
|----------------------------------------------------------------|
|----------------------------------------------------------------|

 |               |               |               |    
           
|------------------------------------------------7---------------|
|5---------------7---------------8---------------------------5---|
|----------------------------------------------------------------|
|----------------------------------------------------------------|

 |               |               |               |    
           
|----------------5-----------------------------------------------|
|--------------------------------5-------------------------------|
|3-----------------------------------------------6---------------|
|----------------------------------------------------------------|

 |               |               |               |    
           
|10--------------8---------------7-------------------------------|
|------------------------------------------------10--------------|
|----------------------------------------------------------------|
|----------------------------------------------------------------|

 |               |               |               |    
           
|3---------------------------------------------------------------|
|----------------3---------------0-----------0-------------------|
|----------------------------------------------------------------|
|------------1-----------------------------------1---------------|

 |               |               |               |    
           
|----------------------------------------------------------------|
|--------------------------------0---------------3---------------|
|----------------3-----------------------------------------------|
|------------1-------------------------------1---------------1---|

 |               |               |               |    
           
|----------------5-----------------------------------------------|
|3-------------------------------6---------------3---------------|
|----------------------------------------------------------------|
|----------------------------------------------------------------|

 |               |               |               |    
           
|----------------------------------------------------------------|
|------------------------------------------------0---------------|
|1---------------3---------------4-------------------------------|
|----------------------------------------------------------------|

 |               |               |               |    
           
|----------------------------------------------------------------|
|1-----------------------------------------------1---------------|
|----------------------------------------------------------------|
|----------------------------------------------------------------|

 |               |               |               |    
           
|--------------------------------3-------------------------------|
|----------------------------------------------------------------|
|----------------------------------------------------------------|
|----------------------------------------------------------------|

 |               |               |               |    
           
|--------------------------------8-------------------------------|
|6---------------------------------------------------------------|
|----------------------------------------------------------------|
|----------------------------------------------------------------|

 |               |               |               |    
           
|13--------------------------------------------------------------|
|--------------------------------13------------------------------|
|----------------------------------------------------------------|
|----------------------------------------------------------------|

 |               |               |               |    
           
|----------------------------------------------------------------|
|0---------------------------------------------------------------|
|--------------------------------0-------------------------------|
|----------------------------------------------------------------|

 |               |               |               |    
           
|--------------------------------2-------------------------------|
|0-----------------------------------------------0---------------|
|----------------------------------------------------------------|
|----------------------------------------------------------------|

 |               |               |               |    
           
|----------------------------------------------------------------|
|5---------------------------------------------------------------|
|----------------------------------------------------------------|
|----------------------------------------------------------------|

 |               |               |               |    
           
|12--------------------------------------------------------------|
|--------------------------------9-------------------------------|
|------------------------------------------------10--------------|
|----------------------------------------------------------------|

 |               |               |               |    
           
|--------------------------------0-------------------------------|
|----------------------------------------------------------------|
|3---------------------------------------------------------------|
|----------------------------------------------------------------|

 |               |               |               |    
           
|--------------------------------0-------------------------------|
|----------------------------------------------------------------|
|3---------------------------------------------------------------|
|----------------------------------------------------------------|

 |               |               |               |    
           
|----------------------------------------------------------------|
|3---------------------------------------------------------------|
|----------------------------------------------------------------|
|----------------------------------------------------------------|

 |               |               |               |    
           
|10--------------------------------------------------------------|
|--------------------------------7-------------------------------|
|------------------------------------------------8---------------|
|----------------------------------------------------------------|

 |               |               |               |    
           
|----------------------------------------------------------------|
|----------------------------------------------------------------|
|1-----------------------------------------------1---------------|
|----------------------------------------------------------------|

 |               |               |               |    
           
|----------------------------------------------------------------|
|--------------------------------3-------------------------------|
|----------------------------------------------------------------|
|----------------------------------------------------------------|

 |               |               |               |    
           
|----------------------------------------------------------------|
|3---------------------------------------------------------------|
|--------------------------------3-------------------------------|
|----------------------------------------------------------------|

 |               |               |               |    
           
|----------------------------------------------------------------|
|--------------------------------3-------------------------------|
|1---------------------------1-----------------------------------|
|----------------------------------------------------------------|

 |               |               |               |    
           
|------------------------------------------------8---------------|
|----------------------------------------------------------------|
|6---------------------------------------------------------------|
|----------------------------------------------------------------|

 |               |               |               |    
           
|----------------------------------------------------------------|
|--------------------------------8-------------------------------|
|----------------------------------------------------------------|
|----------------------------------------------------------------|

 |               |               |               |    
           
|----------------------------------------------------------------|
|6---------------------------------------------------------------|
|----------------------------------------------------------------|
|----------------------------------------------------------------|

 |               |               |               |    
           
|13--------------------------------------------------------------|
|--------------------------------10------------------------------|
|------------------------------------------------11--------------|
|----------------------------------------------------------------|

 |               |               |               |    
           
|--------------------------------2-------------------------------|
|0---------------------------------------------------------------|
|----------------------------------------------------------------|
|----------------------------------------------------------------|

 |               |               |               |    
           
|--------------------------------2-------------------------------|
|0---------------------------------------------------------------|
|----------------------------------------------------------------|
|----------------------------------------------------------------|

 |               |               |               |    
           
|0---------------------------------------------------------------|
|--------------------------------0-------------------------------|
|----------------------------------------------------------------|
|----------------------------------------------------------------|

 |               |               |               |    
           
|--------------------------------7-------------------------------|
|5-----------------------------------------------5---------------|
|----------------------------------------------------------------|
|----------------------------------------------------------------|

 |               |               |               |    
           
|----------------------------------------------------------1-----|
|----------------------------------------------------------------|
|----------------------------------------------------------------|
|----------------------------------------------------------------|

 |               |               |               |    
           
|----------------------------------------------------------------|
|----------------------------------------------------------------|
|----------------------------------------------------------4-----|
|----------------------------------------------------------------|

 |               |               |               |    
           
|--------------------------------0-------------------------------|
|----------------------------------------------------------------|
|3---------------------------------------------------------------|
|----------------------------------------------------------------|

 |               |               |               |    
           
|--------------------------------8-------------------------------|
|6---------------------------6-----------------------------------|
|----------------------------------------------------------------|
|----------------------------------------------------------------|

 |               |               |               |    
           
|----------------------------------------------------------------|
|--------------------------------3-------------------------------|
|1---------------------------------------------------------------|
|----------------------------------------------------------------|

 |               |               |               |    
           
|--------------------------------2-------------------------------|
|0---------------------------------------------------------------|
|----------------------------------------------------------------|
|----------------------------------------------------------------|

 |               |               |               |    
           
|12--------------------------------------------------------------|
|----------------------------------------------------------------|
|--------------------------------10------------------------------|
|----------------------------------------------------------------|

 |               |               |               |    
           
|----------------------------------------------------------------|
|2---------------------------------------------------------------|
|--------------------------------0-------------------------------|
|----------------------------------------------------------------|

 |               |               |               |    
           
|----------------------------------------------------------------|
|0---------------------------------------------------------------|
|----------------------------------------------------------------|
|----------------------------------------------------------------|

 |               |               |               |    
           
|--------------------------------7-------------------------------|
|5---------------------------5-----------------------------------|
|----------------------------------------------------------------|
|----------------------------------------------------------------|

 |               |               |               |    
           
|----------------------------------------------------------------|
|--------------------------------1-------------------------------|
|3---------------------------------------------------------------|
|----------------------------------------------------------------|

 |               |               |               |    
           
|----------------------------------------------------------------|
|3---------------------------------------------------------------|
|--------------------------------3-------------------------------|
|----------------------------------------------------------------|

 |               |               |               |    
           
|------------------------------------------------3---------------|
|----------------------------------------------------------------|
|1---------------------------------------------------------------|
|----------------------------------------------------------------|

 |               |               |               |    
           
|----------------------------------------------------------------|
|--------------------------------3-------------------------------|
|----------------------------------------------------------------|
|----------------------------------------------------------------|

 |               |               |               |    
           
|--------------------------------5-------------------------------|
|3---------------------------------------------------------------|
|----------------------------------------------------------------|
|----------------------------------------------------------------|

 |               |               |               |    
           
|----------------------------------------------------------------|
|--------------------------------0---------------3---------------|
|1---------------3-----------------------------------------------|
|----------------------------------------------------------------|

 |               |               |               |    
           
|----------------------------------------------------------------|
|----------------0---------------1---------------2---------------|
|1---------------------------------------------------------------|
|----------------------------------------------------------------|

 |               |               |               |    
           
|----------------------------------------------------------------|
|3---------------------------------------------------------------|
|----------------------------------------------------------------|
|----------------------------------------------------------------|


Created with TablEdit http://www.tabledit.com/


_____________________________________________________
Hitta snörapporter... 
från 500 olika skidorter i Europa
på http://se.snow.yahoo.com

     
Добавлено: 05.06.2013
Вам также может быть интересно:
Другие материалы по этой песне:
  • Аккорды и текст

Страница создана 05.06.2013
http://primanota.ru/layton-turner/after-you-have-gone-chords.htm
Привет, Гость.
Предлагаем пройти революционный курс по гитаре.
Подарок от PrimaNota.Ru, забирай!