PrimaNota.ru - самый крупный в мире бесплатный архив песенных текстов, аккордов, табулатур и нот


Lawrence Taylor - Bang Bang - таба, видео

Регистрация Запомнить меня
Войти через:  Facebook Google Twitter Vk Yandex Mail.ru

Lawrence Taylor - Bang Bang - таба, видео

Печатать
Просмотров: 132
-------------------------------------------------------------------------------
                             BANG BANG - Lawrence Taylor
-------------------------------------------------------------------------------
Tabbed by: Zackery Harley
E-mail: zackharley@gmail.com

Tuning: Standard

The strumming pattern for the intro, verses, and chorus is as follows:

   E                       G#m
e|------9-X--9--9---9---|------4-X--4--4---4---|
B|------9-X--9--9---9---|------4-X--4--4---4---|
G|------9-X--9--9---9---|------4-X--4--4---4---|
D|------9-X--9--9---9---|------6-X--6--6---6---|
A|-7------X-------7-----|------6-X--6--6---6---|
E|--------X----------/2-|-4------X-------4--/2-|

INTRO:

E - G#m  x2


VERSE:
E
I don't even know you
    G#m
So why'd you have to look at me like I'm your enemy?
 E
Go ahead and shoot me down
      G#m
Bang! Bang! Bang! Bang!

E
I could get to know you
 G#m
Yeah, we could be homies,I'll bet you're lonely, 
    E
But go ahead and say what you need to say
       G#m
Bang! Bang! Bang! Bang!


PRE-CHORUS:
The strumming pattern is similar to the verses, 
but the second chord is only played once before playing this riff:

    RIFF
e|-----------|
B|--------2--|
G|-3--3h4----|
D|-----------|
A|-----------|
E|-----------|

  Emaj7                               G#m* RIFF
A swell of smoke arose; it filled the air
    Emaj7                        F#* RIFF
Our hero shines the way! Let them turn.


CHORUS:
       E            G#m
Bang! Bang!   Bang! Bang!
       E            G#m
Bang! Bang!   Bang! Bang!


VERSE:
        E
Do you think that, I'm beneath you?
      G#m
Well, see, I don't believe you--Go write a review!
E
 Go tell your friends, the jury... the judge... everyone
 G#m
Bang! Bang!

E
I don't need to hear you
G#m
Little man, big mouth, I got you figured out
E
I heard that 'you quit/you're gone' but you couldn't come!
 G#m
Bang! Bang!


PRE-CHORUS:
  Emaj7                               G#m* RIFF
A swell of smoke arose; it filled the air
    Emaj7                        F#* RIFF
Our hero shines the way! Let them turn.

CHORUS:
       E            G#m
Bang! Bang!   Bang! Bang! Yeah!
       E            G#m
Bang! Bang!   Bang! Bang!


BRIDGE:

Bang! Bang!                           They sayin'...
e|---------------------|--------------------|
B|---------------------|--------------------|
G|-----8--(strum)------|----8h9-9-(strum)---|
D|-----9--(strum)------|----9---9-{strum)---|
A|-----7--(strum)------|----7---7-(strum)---|
E|---------------------|--------------------|


OUTRO:
Play whole section 8x to end song song
                                                                          
e||--X--X--------------X--X--------------X--X--------------X--X------------|      
B||--X--X--------------X--X--------------X--X--------------X--X------------|      
G||--X--X--------------X--X--------------X--X--------------X--X------------|
D||--X--X--4h6--6-6----X--X--4h6--6-6----X--X--4h6--6-6----X--X--4h6--6-6--|
A||--X--X--------------X--X--------------X--X--------------X--X------------|
E||--X--X--0----0-0----X--X--0----0-0----X--X--0----0-0----X--X--0----0-0--|

 e|--X--X--------------X--X--------------X--X--------------X--X------------||      
 B|--X--X--------------X--X--------------X--X--------------X--X------------||     
 G|--X--X--------------X--X--------------X--X--------------X--X------------||
 D|--X--X--4h6--6-6----X--X--4h6--6-6----X--X--4h6--6-6----X--X--4h6--6-6--||
 A|--X--X--------------X--X--------------X--X--------------X--X------------||
 E|--X--X--4----4-4----X--X--4----4-4----X--X--4----4-4----X--X--4----4-4--|| 

It's just they say you're tryin' to blow me...
But I'm almost six feet tall
Yeah, you know that if you knew me, ya'd
Put all your cards there on the floor
Your fickle friends are phonies!
It's what you're heading for!
(2 AM and countin'... Go on an' pout on the floor.)
Oh yeah, bang bang bang! Bang! Bang!
Yeah... Bang! Bang!
O-o-oh... oh, oh....
Oh, oh...
Oh, oh!

Yeah! Bang! Bang!
Добавлено: 15.06.2016
Вам также может быть интересно:
Другие материалы по этой песне:
  • Аккорды и текст

Страница создана 15.06.2016
http://primanota.ru/lawrence-taylor/bang-bang-chords.htm
Привет, Гость.
Предлагаем пройти революционный курс по гитаре.
Подарок от PrimaNota.Ru, забирай!