PrimaNota.ru - самый крупный в мире бесплатный архив песенных текстов, аккордов, табулатур и нот


Lawrence Arms - The Slowest Drink At The Saddest Bar On The Snowiest Day In The Greatest City - аккорды и текст, видео

Регистрация Запомнить меня
Войти через:  Facebook Google Twitter Vk Yandex Mail.ru

Lawrence Arms - The Slowest Drink At The Saddest Bar On The Snowiest Day In The Greatest City - аккорды и текст, видео

Печатать
Просмотров: 75
The Slowest Drink At The Saddest Bar On The Snowiest Day In The Greatest City
Lawrence Arms
-------------------------------------------------------------------------------
 The Slowest Drink At The Saddest Bar On The Snowiest Day In The Greatest City
-------------------------------------------------------------------------------

by The Lawrence Arms

Tabbed by: Saitenquäler
Email: saitenquaeler@safe-mail.net


    C#5  B5  A5  C#5  E5 C#m  B   A   
e|------------------------4---7---5---|
B|------------------------5---7---5---|
G|---6---4---2----6-------6---8---6---|
D|---6---4---2----6---2---6---9---7---|
A|---4---2---0----4---2---4---9---7---|
E|--------------------0-------7---5---|


C#5                   A5
My eyes opened to the emptiness.
E5                      B5
My face was nothing but crooked lines.
C#5           B5           A5
I guess somewhere I really fell behind.
C#5                           A5
My feet were cold against the bathroom tile.
E5                    B5 
Took a shower just to pass the time.
C#5         B5                A5
My mind was full, too much to figure out.


   C#5   B5   A5
guitar 2:
e|--/4----7---------|
B|------------7\5---|


                 C#5       B5                A5
Walk through the snow to a bar where there's no one I know.
       C#5        B5        A5
Drink slow, drink slow with nowhere to go.

And when I leave I'll be singing this song.        Summer's
e|---------------4-----------7----------4-------------------|
B|--------/5----------5--4-------4----2---2--4h5p0-2--0-----|

          gone, carry on, I'm a ghost in the dawn.
e|---------------4---------7----------4---------------------|
B|--------/5-------5--4-------4---2------4/5~---------------|


E5    B5          A5
I was lost on the airplanes.
E5    B5          A5
I was high on the fast trains.
   C#5          B5       A5
My heart was a bird in a small cage.
E5         B5          C#5   A5 
And I was drunk on the radio waves.
       E5           B5           C#5   A5
I was drunk, I was drunk on the radio waves.


    C#5                       A5              E5  B5       C#5
guitar 2:             
e|---/9---7-4h5p4---7-5-4---------4-2-4-5-7-2-0-2-2h4p2--------|
B|------9-----------------7---5-7----------------------5-0-2---|
G|-------------------------------------------------------------|

                         A5
Too much coffee I'm not steady now.
E5                        B5
Quiet apartment, ears are ringing loud.
C#5        B5                 A5
The winter drowns out all the city sounds.
C#5                     A5
Hang my towel over the shower rod. 
E5                 B5
So many hours just hanging on.
C#5      B5          A5
So many chances have come and gone.


   C#5   B5   A5
guitar 2:
e|--/4----7---/9-----|
B|-------------------|


                 C#5       B5                A5
Walk through the snow to a bar where there's no one I know.
       C#5        B5        A5
Drink slow, drink slow with nowhere to go.

And when I leave I'll be singing this song.        Summer's
e|---------------4-----------7----------4-------------------|
B|--------/5----------5--4-------4----2---2--4h5p0-2--0-----|

          gone, carry on, I'm a ghost in the dawn.
e|---------------4---------7----------4---------------------|
B|--------/5-------5--4-------4---2------4/5~---------------|


E5    B5          A5
I was lost on the airplanes.
E5    B5          A5
I was high on the fast trains.
   C#5          B5       A5
My heart was a bird in a small cage.
E5         B5          C#5   A5 
And I was drunk on the radio waves.
       E5           B5           C#5   A5
I was drunk, I was drunk on the radio waves.


C#5          A5             E5            B5
And all this time passed me by and I was trapped here waiting.
C#5            A5              E5             B5
Sometimes the truth is hard to find and I was scared of changing.
C#5  B5      A5       C#5   B5      A5
What will it say on my snow-covered grave?
E5         B5             C#5      B5   A5
"He had it all, he let it all just slip away."


                 C#m       B                 A 
Walk through the snow to a bar where there's no one I know.
       C#m        B         A 
Drink slow, drink slow with nowhere to go.
           C#m           B            A 
And when I leave I'll be singing this song.        
         C#m         B         A 
Summer's gone, carry on, I'm a ghost in the dawn.


E5    B5          A5
I was lost on the airplanes.
E5    B5          A5
I was high on the fast trains.
   C#5          B5       A5
My heart was a bird in a small cage.
E5         B5          C#5   A5 
And I was drunk on the radio waves.
       E5          B5           C#5   A5
I was drunk, I was drunk on the radio waves.


| /  slide up
| \  slide down
| h  hammer-on
| p  pull-off
| ~  vibrato
===============================================================================
Добавлено: 05.11.2013
Другие материалы по этой песне:
  • Аккорды и текст

Страница создана 05.11.2013
http://primanota.ru/lawrence-arms/the-slowest-drink-at-the-saddest-bar-on-the-snowiest-day-in-the-greatest-city-chords.htm
Привет, Гость.
Предлагаем пройти революционный курс по гитаре.
Подарок от PrimaNota.Ru, забирай!