PrimaNota.ru - самый крупный в мире бесплатный архив песенных текстов, аккордов, табулатур и нот


Lawrence Arms - The Disaster March - текст песни, бас-таба, видео

Регистрация Запомнить меня
Войти через:  Facebook Google Twitter Vk Yandex Mail.ru

Lawrence Arms - The Disaster March - текст песни, бас-таба, видео

Печатать
Просмотров: 141
Artist : Lawrence Arms
Song: The Disaster March
Tabbed by, Angry_Pirate (lsfds@hotmail.co.uk)

Great Song

G|---------------------------------------------|
D|---------------------------------------------|
A|----22222222---------------------------------|
E|-------------2222222222222222----------------|
                  "there was a time and a place.."

G|---------------------------------------------|
D|---------------------------------------------|
A|-2222222222222222----------------------------|
E|------------------222222222222222------------|
                        "that was all full of mistakes.."

G|---------------------------------------------|
D|---------------------------------------------|
A|-222222222222/4-2----------------------------|
E|---------------------2222222222222222--------|

G|---------------------------------------------|
D|---------------------------------------------|
A|-22222222222-111-----------------------------|
E|---------------------22222222222222222-------|

G|---------------------------------------------|
D|---------------------------------------------|
A|-2222222222222222----------------------------|
E|---------------------------------------------|

G|---------------------------------------------| x4
D|---444444444444-----------4--4--4--4---------|
A|----------------4444----22-22-22-22----------|
E|-2-------------------------------------------|
        "I was more than alive.."

G|---------------------------------------------|x2
D|------------6-666----4-444---4--4------------|
A|---4-444--4-------2--------2---2--2----------|
E|-2-------------------------------------------|

G|---------------------------------------------|x2
D|-44444444-33333333---------------------------|
A|-------------------66666666666666666---------|
E|---------------------------------------------|

G|---------------------------------------------|x2
D|----------------------------------4-4--------|
A|-------------------222222222222222-2-2-------|
E|-22222222-11111111---------------------------|
  "about YOUUUU"


G|-------------|------------------------------------------------|
D|-1~----------|------------------------------------------------|
A|--------2~---|-/1-111111-2-222222-----------------------------|
E|-------------|--------------------2-222222-1-111111-0-000000--|
"Ugly is ugly"    "Transformation is a dream"

G|---------------------------------------------|
D|---------------------------------------------|
A|-22222222---------------------------22222222-|
E|----------22222222-11111111-0000000----------|

G|------------|
D|------------|
A|------------|
E|-2~--1~--0~-|



G|------------------------------|x8
D|-1-1-1111---------------------|
A|----------44-4-22-2/----------|
E|------------------------------|
   "im a drunk with a job i got pictures to prove it.."

G|---------------------------------------------|x2
D|-1-1111111111-2-444-------------2-444--------|
A|-------------------2-22222222222-------------|
E|---------------------------------------------|


G|---------------------------------------------|x4  
D|-1111111111111111----------------------------|    
A|------------------4444-2222222222222222-4----|    
E|---------------------------------------------|    
  "i am written on the subway walls"


        G|-------------------------------------------|x4
        D|--1--1-----------------4----4----4----4----|
        A|---------------------22---22---22---22-----|
        E|-------------------------------------------|
"stop me in the streets and parks"


G|----------------------------------------|x3
D|----------------------------------------|
A|---------222222222----------------------|
E|0-0-000-0----------2-2-222-22-11-2222---|


G|-----------------------------------| x1
D|-1111111---------------------------|
A|---------22222222------------------|
E|------------------2222-22-0-2-0-2--|


G|----------------------------------------|x2
D|----------------------------------------|
A|---------222222222----------------------|
E|0-0-000-0----------2-2-222-22-11-2222---|




G|------------------------------------|
D|------------------------------------|
A|--------2-2-2222--------------------|
E|0-0-0000---------2-2-2222-1-1-1111--|
     "good Friends.."

G|------------------------------------|
D|------------------------------------|
A|--------2-2-2222--------------------|
E|0-0-0000---------2-2-2222-1-1--0~---|
Добавлено: 17.10.2013
Другие материалы по этой песне:
  • Аккорды и текст

Страница создана 22.03.2012
http://primanota.ru/lawrence-arms/the-disaster-march-chords.htm
Привет, Гость.
Предлагаем пройти революционный курс по гитаре.
Подарок от PrimaNota.Ru, забирай!