PrimaNota.ru - самый крупный в мире бесплатный архив песенных текстов, аккордов, табулатур и нот


Lawrence Arms - Requiem Revisited - текст песни, таба, видео

Регистрация Запомнить меня
Войти через:  Facebook Google Twitter Vk Yandex Mail.ru

Lawrence Arms - Requiem Revisited - текст песни, таба, видео

Печатать
Просмотров: 95
-----------------------------------------------------------------------------
	             Requiem Revisited - The Lawrence Arms
-----------------------------------------------------------------------------

Tabbed by:rob
Email:brainwashed_monkey@bluebottle.com

Tuning:EADGBe

intro
e|---------------------------------------------------|
B|---------------------------------------------------|
G|------------------------5---5----------------------|
D|------------------7---7-5---5-3~-------------------|
A|----3~----3~------7---7-3---3-3~-------------------|
E|-5~----1~---------5---5-------1~-------------------|
 whispers "we'll knock back a few and talk about life"
 (lyrics from an old nomeansno song. one of brendan's favourite bands)

verse 1
e|---------------------------------------------------|
B|---------------------------------------------------|
G|-22222-55555-------------22222-55555---------------|
D|-22222-55555-33333-55555-22222-55555-55555-33333---| x2
A|-00000-33333-33333-55555-00000-33333-55555-33333---|
E|-------------11111-33333-------------33333-11111---|
   his here is gone..     whoa-oa! whoa-oa!

chorus
e|-------------------|-----------------------------|----------------xxxx------|
B|-------------------|-----------------------------|---5-5-5-5-5-5--xxxx------|
G|-222---------------|-22222-55555-----------------|--2-2-2-2-2-2---xxxx------|
D|-222-555-33333--x2-|-22222-55555-55555-33333--x2-|----------------xxxx--3~--|
A|-000-555-33333-----|-00000-33333-55555-33333-----|----------------xxxx--3~--|
E|-----333-11111-----|-------------33333-11111-----|----------------xxxx--1~--|
   these hands beat red...

e|----------------------------------------------------------------|
B|----------------------------------------------------------------|
G|-22222-55555---------------14-14-1212-10-9---14-14-1212-10-9----|
D|-22222-55555-33333-55555---x--x--x-x--x--x---x--x--x-x--x--x----|
A|-00000-33333-33333-55555---12-12-1010-8--7---12-12-1010-8--7----|
E|-------------11111-33333----------------------------------------|

verse 2
e|---------------------------------------------------|
B|---------------------------------------------------|
G|-22222-55555-------------22222-55555---------------|
D|-22222-55555-33333-55555-22222-55555-55555-33333---| 
A|-00000-33333-33333-55555-00000-33333-55555-33333---|
E|-------------11111-33333-------------33333-11111---|
   and all these words...

e|---------------------------------------------xxxxxx--|
B|---------------------------------------------xxxxxx--|
G|-22222-55555-------------------------22222-2-xxxxxx--|
D|-22222-55555-33333-55555-33333-55555-22222-2-xxxxxx--| 
A|-00000-33333-33333-55555-33333-55555-00000-0-xxxxxx--|
E|-------------11111-33333-11111-33333---------xxxxxx--|
   whoa-oa!  whoa-oa!  whoa-oa

e|-----------------------------------------xxxxxx------|
B|-----------------------------------------xxxxxx------|
G|----------5555---------------------------xxxxxx------|
D|-33333333-5555-5555--x3--333333-555555-5-xxxxxx------|
A|-33333333-3333-5555------333333-555555-5-xxxxxx------|
E|-11111111------3333------111111-333333-3-xxxxxx------|
   this heart....

chorus 2
e|-------------------|---------------------------------------------|
B|-------------------|---------------------------------------------|
G|-222---------------|-55555-------22222---------------------------|
D|-222-555-33333--x2-|-55555-55555-22222-33333-x3---PICKSLIDE!!!!--|
A|-000-555-33333-----|-33333-55555-00000-33333---------------------|
E|-----333-11111-----|-------33333-------11111---------------------|
   these hands beat red...

outro
e|------------------------------------------|
B|------------------------------------------|
G|-22222-55555------------------2~----------|
D|-22222-55555-55555-33333--x4--2~--5~--3~--|
A|-00000-33333-55555-33333------0~--5~--3~--|
E|-------------33333-11111----------3~--1~--|
   bo-oh-oh-ones.... 

lets go out, and see what we see.

| /  slide up
| \  slide down
| h  hammer-on
| p  pull-off
| ~  vibrato
| +  harmonic
| x  Mute note
===============================================================================
Добавлено: 15.10.2013
Другие материалы по этой песне:
  • Аккорды и текст

Страница создана 27.02.2012
http://primanota.ru/lawrence-arms/requiem-revisited-chords.htm
Привет, Гость.
Предлагаем пройти революционный курс по гитаре.
Подарок от PrimaNota.Ru, забирай!