PrimaNota.ru - самый крупный в мире бесплатный архив песенных текстов, аккордов, табулатур и нот


Lawrence Arms - The Redness In The West - бас-таба, видео

Регистрация Запомнить меня
Войти через:  Facebook Google Twitter Vk Yandex Mail.ru

Lawrence Arms - The Redness In The West - бас-таба, видео

Печатать
Просмотров: 71
-------------------------------------------------------------------------------
                             THE REDNESS IN THE WEST - The Lawrence Arms
-------------------------------------------------------------------------------
Tabbed by: Doug
E-mail: kingbowservlog@gmail.com

Awesome song from their 2008 EP "Buttsweat and Tears"! This one's pretty easy but has some great and 
fun fills in it. Enjoy!

Tuning: Standard E

0:26 (loud part)
G|---------------
D|---------------|
A|-0000000000----|
E|---------------|


0:44 "Fuck you, you're cool..."
G|---------------------------------------------------------------------------|
D|-----5-----------------------------2------------2--------------------------|
A|-3--------------3--------------3------------3------------------------------|
E|---------1----------3---1-------------1-------------1----------------------|

1:01 "Break into something..." 
G|--------------------------5-----2-----5------------------------------------|
D|-5--7--5--3----5--7--3-------2-----3-----5--7--5--3--5---------------------|
A|---------------------------------------------------------------------------|
E|---------------------------------------------------------------------------|

1:19 Instrumental Break
G|---------------------------------------------------------------------------|
D|----------------0-2-0-3--------------------0-2-0-3-------------------------|
A|-3--2--------3--------------3-----------3----------------------------------|
E|-------1-----------------------3--1----------------------------------------|

1:35 Outro
G|-----------------------------------------------------------------|
D|----------------------------109----------------------------------|
A|-333------------333-----/88----10--000---------------------------|
E|-----333-111111-----333----------------333-111111-333333-111-333-|

G|-----------------------------------------------------------------|
D|-----------------------------------------------------------------|
A|-333222--------333------------000---333888888--8-----------------|
E|-------111111-----3331111111-----333-----------------------------|

2:06 Instrumental Outro w/ "Whoa-oh's"
G|------------------------------------------------------------------|
D|---2-2-------------7777--2223-2---2-2---------------7777--2223-2--|   x2
A|-3-------0h22-0-----------------3-------0h22-0--------------------|   
E|-------3------------------------------3---------------------------|

2:22~ Ending 
G|-------------------------|
D|-------------------------|
A|-3-3-----0-0-------------|
E|-----3-------1---------1-|

That's it! 

| /  slide up
| \  slide down
| h  hammer-on
| p  pull-off
| ~  vibrato
| +  harmonic
| x  Mute note
===============================================================================
Добавлено: 14.11.2015
Другие материалы по этой песне:
  • Аккорды и текст

Страница создана 14.11.2015
http://primanota.ru/lawrence-arms/redness-in-west-chords.htm
Привет, Гость.
Предлагаем пройти революционный курс по гитаре.
Подарок от PrimaNota.Ru, забирай!