PrimaNota.ru - самый крупный в мире бесплатный архив песенных текстов, аккордов, табулатур и нот


Lawrence Arms - Key To The City - текст песни, таба, видео

Регистрация Запомнить меня
Войти через:  Facebook Google Twitter Vk Yandex Mail.ru

Lawrence Arms - Key To The City - текст песни, таба, видео

Печатать
Просмотров: 104
The Lawrence Arms - Key to the City

Tabbed by Max Guhlke (Max.Guhlke@web.de)<- also msn

E|-33-33-33------|
B|-11-11-11------|
G|-22-22-22------|
D|-22-22-22----3-|
A|-00-00-00----3-|
E|-------------1-|

2x
E|-3-0--3-0--3-0-----------------------|
B|-1-1--1-1--1-1-----------------------|
G|-2-2--2-2--2-2--55555----------------|
D|-2-3--2-3--2-3--55555555553333333333-|
A|-0-3--0-3--0-3--33333555553333333333-|
E|---------------------333331111111111-|

E|--7---7-5--7---7-5----------|
B|-8--10--6-8--10--6----------|
G|----------------------------|
D|---------------------7------|
A|-------------------5-7-5--3-|
E|-------------------3-5-3--1-|

E|-00000000000000-----------00000000000000----------------------------------------------------|
B|-11111111111111-----------11111111111111----------------------------------------------------|
G|-22222222222222-----------22222222222222-----------55555-----22222-----55555-----5555555555-|
D|-222222222222225555533333-222222222222225555533333-5555555555222223333355555555555555555555-|
A|-000000000000005555533333-000000000000005555533333-3333355555000003333333333555553333333333-|
E|---------------3333311111---------------3333311111------33333-----11111-----33333-----------|

                                               2x
E|--------------------------------------------|---33-33-33------|
B|-1313131313131313131313131313131313131313---|---11-11-11------|
G|-1414141414141414141414141414141414141414---|---22-22-22------|
D|-1414141414141414141414141414141414141414-3-|---22-22-22----3-|
A|-1212121212121212121212121212121212121212-3-|---00-00-00----3-|
E|------------------------------------------1-|---------------1-|


E|-3-0-3-0--7---7-5--7---7-5----------|
B|-1-1-1-1-8--10--6-8--10--6----------|
G|-2-2-2-2----------------------------|
D|-2-3-2-3---------------------7------|
A|-0-3-0-3-------------------5-7-5--3-|
E|---------------------------3-5-3--1-|

E|-00000000000000-----------00000000000000----------------------------------------------------|
B|-11111111111111-----------11111111111111----------------------------------------------------|
G|-22222222222222-----------22222222222222-----------55555-----22222-----55555----------------|
D|-222222222222225555533333-222222222222225555533333-5555555555222223333355555555553333333333-|
A|-000000000000005555533333-000000000000005555533333-3333355555000003333333333555553333333333-|
E|---------------3333311111---------------3333311111------33333-----11111-----333331111111111-|

E|-------------------------------------------------------------------------------|
B|-----------------------------------------------------------------13------------|
G|------------1414149999-17171712121212-1414149999-17171712121212--12------------|
D|-3333355555--x-x-xxxxx--x-x-x-x-x-x-x--x-x-xxxxx--x-x-x-x-x-x-x--10---33333333-|
A|-3333355555-1212127777-15151510101010-1212127777-15151510101010-------33333333-|
E|-1111133333-----------------------------------------------------------11111111-|

E|-00000000000000-----------00000000000000----------------------------------------------------------|
B|-11111111111111-----------11111111111111----------------------------------------------------------|
G|-22222222222222-----------22222222222222------------5555-7777-9997-5555--55555-77777-555555555555-|
D|-222222222222225555533333-222222222222225555533333--xxxx-xxxx-xxxx-xxxx--xxxxx-xxxxx-xxxxxxxxxxxx-|
A|-000000000000005555533333-000000000000005555533333--3333-5555-7775-3333--33333-55555-333333333333-|
E|---------------3333311111---------------3333311111------------------------------------------------|

E|--------------------------------------------------------------------------------33-33-33----|
B|--------------------------------------------131313131313131313131313131313------11-11-11----|
G|-55555------------------5555-7777-9997-5555-141414141414141414141414141414------22-22-22----|
D|-5555555555333333333333-xxxx-xxxx-xxxx-xxxx-141414141414141414141414141414-333--22-22-22--3-|
A|-3333355555333333333333-3333-5555-7775-3333-121212121212121212121212121212-333--00-00-00--3-|
E|------33333111111111111----------------------------------------------------111------------1-|
Добавлено: 20.06.2013
Другие материалы по этой песне:
  • Аккорды и текст

Страница создана 08.06.2012
http://primanota.ru/lawrence-arms/key-to-the-city-chords.htm
Привет, Гость.
Предлагаем пройти революционный курс по гитаре.
Подарок от PrimaNota.Ru, забирай!