PrimaNota.ru - самый крупный в мире бесплатный архив песенных текстов, аккордов, табулатур и нот


Law - Please Explain - текст песни, таба, видео

Регистрация Запомнить меня
Войти через:  Facebook Google Twitter Vk Yandex Mail.ru

Law - Please Explain - текст песни, таба, видео

Печатать
Просмотров: 96
LAW - please explain
(Album: Life After Weekend)

I Dont think the solo is absolutely correct, especially at the end, coz the 
songs fading out,
and its very difficult to hear it.


chords (almost the whole song):
Cm G# G Fm

riff during the verse (play with chorus):
e|-8---8--8---8--7---7-----8-------------------------------
h|--8-8-8--9-9-9--8-8-8---9-9--9----(hear the rythm, cant tab it)
g|---8------8------7----10---10----------------------------
d|---------------------------------------------------------
a|---------------------------------------------------------
e|---------------------------------------------------------

1st bridge:

e|---------------------------------------------------------
h|---------------------------------------------------------
g|------------------5555-----------------------------------
d|-5565-5--5565-5---5555-6666 (repeat several times)-------
a|-5565-5--5565-5---3333-6666------------------------------
e|-3343-3--3343-3--------4444------------------------------
		"some how i need ...."

end of the brigde: Cm G# Bb B

lick (right after the bridge, played with an ebow or sth ):
e|------8/7/8----
h|---------------

solo:
e|-66-6-6--66-6--8-10-10b11r10-888-6 6-6h8p6-4---4-6H8p6-4---
h|---8-8-8---8-8-------------------------------8-----------8-
g|-----------------------------------------------------------

e|-----------------------------------------------6---6---6---6---6--
h|-9h11p9-/-8---9h11p9-/-8---9h11p9-/-8-----------------------------
g|------------8------------8------------8--8-7-8---8---8---8---8----

e|---66---6--8888-10b11r10-8----------------------------------
h|------------------------------------------------------------
g|-8----8-----------------------------------------------------



enjoy it! Cice (cice@museclub.de)
any corrections? please mail me 

     
Добавлено: 07.09.2013
Другие материалы по этой песне:
  • Аккорды и текст

Страница создана 17.05.2012
http://primanota.ru/law/please-explain-chords.htm
Привет, Гость.
Предлагаем пройти революционный курс по гитаре.
Подарок от PrimaNota.Ru, забирай!