PrimaNota.ru - самый крупный в мире бесплатный архив песенных текстов, аккордов, табулатур и нот


Lavender Diamond - I Dont Recall - аккорды и текст, видео

Регистрация Запомнить меня
Войти через:  Facebook Google Twitter Vk Yandex Mail.ru

Lavender Diamond - I Dont Recall - аккорды и текст, видео

Печатать
Просмотров: 227
I Dont Recall
Lavender Diamond
This is a nice song from the Album ''Incorruptible Heart''
I'm 100% sure that this tab is correct 
Enjoy it :)

http://lavenderdiamond.net/
Tabbed by: AlexVdz12
E-mail: amvdz12@gmail.com


INTRO(Guitar): 
e|-----------5----------5-----------------|
B|-----------7-x8-------6-x8--------------|
G|-----------7----------6-----------------|  X2
D|----------------------------------------|
A|----------------------------------------|
E|----------------------------------------|


VERSE: 
   E              A
Oh no, I don't recall
        E                     A
I can't remember anything at all
            G#m              F#m
The life we knew is lost and gone
                    A
And it's hard without you


VERSE: 
    E               A
I know the world is new
             E                     A
And what you lost inside, inside of you
            G#m               F#m
And all the love we shared is true
                    A
But it's hard without you


CHORUS:
F#m  A        E                         B
Ooooh life is gone, and your heart is gone
                    F#m
But it's hard to go
    A           B   A
Ooooh without you


AFTER CHORUS:
e|-----------5----------5-----------------|
B|-----------7-x8-------6-x8--------------|
G|-----------7----------6-----------------|  X2
D|----------------------------------------|
A|----------------------------------------|
E|----------------------------------------|


VERSE:
   E              A
Oh no, I don't recall
        E                     A
I can't remember anything at all
            G#m              F#m
And what we knew that life is gone
                    A
And it's hard without you


CHORUS:
F#m  A              E                       B
Ooooh my world is gone, and your heart is gone
                    F#m
But it's hard to go
    A           B   A
Ooooh without you


AFTER CHORUS:
e|-----------5----------5-----------------|
B|-----------7-x8-------6-x8--------------|
G|-----------7----------6-----------------| X3
D|----------------------------------------|
A|----------------------------------------|
E|----------------------------------------|

e|-----4------2-------5------5------------|
B|-----4-x8---2-x8----6-x8 --6-x8---------|
G|-----4------2-------6------6------------|
D|----------------------------------------| END
A|----------------------------------------|
E|----------------------------------------|

E    A
Ooooh 
E    A
Ooooh 
E    A
Ooooh 
G#m              F#m                     A
Life we shared is gone and it's hard without you
Добавлено: 01.11.2013
Другие материалы по этой песне:
  • Аккорды и текст

Страница создана 01.11.2013
http://primanota.ru/lavender-diamond/i-dont-recall-chords.htm
Привет, Гость.
Предлагаем пройти революционный курс по гитаре.
Подарок от PrimaNota.Ru, забирай!