PrimaNota.ru - самый крупный в мире бесплатный архив песенных текстов, аккордов, табулатур и нот


Lauryn Hill - I Remember - аккорды и текст, видео

Регистрация Запомнить меня
Войти через:  Facebook Google Twitter Vk Yandex Mail.ru

Lauryn Hill - I Remember - аккорды и текст, видео

Печатать
Просмотров: 126
Авторы: Lauryn Hill

I Remember
Lauryn Hill
ARTIST: Lauryn Hill
Name of the Song: I Remember
album: MTV unplugged
tab writer: Neera Goyal 

Verse 1

e---10----------8----------7----------0---------
B---10----------8----------7----------0---------
G---11----------9----------7----------0---------
D---12---------10----------9----------2---------
A---12---------10----------9----------2---------
E---10----------8----------7----------0---------

  Dmaj       Cmaj        Bm         Em
I remember....................right thru me.


e----2----------0----------2----------0---------
B----2----------0----------2----------0---------
G----3----------0----------2----------0---------
D----4----------2----------4----------2---------
A----4----------2----------4----------2---------
E----2----------0----------2----------0---------

   F#maj      Em       F#m          Em
 And ........................... like a child.


e----7----------9----------8----------7---------
B----8---------10----------8----------7---------
G----9---------11----------9----------7---------
D----9---------11---------10----------9---------
A----7----------9---------10----------9---------
E----x----------x----------8----------7---------

   Em      F#m        Cmaj          Bm
 All of .........................to command.



Chorus

e----2----------0----------3-----------2---------
B----2----------0----------3-----------2---------
G----3----------0----------3-----------2---------
D----4----------2----------5-----------4---------
A----4----------2----------5-----------4---------
E----2----------0----------3-----------2---------

  F#maj       Em         Gm          F#m
   I ..............................in my life.


Verse and chorus repeat.


At the end, "I remember, I remember, I remember" etc.,
repeat first line of verse ( D  C  Bm  Em) then go to chorus 
(F#  Em  Gm  F#m). She then ends on a D chord. 
     
Добавлено: 01.06.2013
Вам также может быть интересно:
Другие материалы по этой песне:
  • Аккорды и текст

Страница создана 01.06.2013
http://primanota.ru/lauryn-hill/i-remember-chords.htm
Привет, Гость.
Предлагаем пройти революционный курс по гитаре.
Подарок от PrimaNota.Ru, забирай!