PrimaNota.ru - самый крупный в мире бесплатный архив песенных текстов, аккордов, табулатур и нот


Laurie Anderson - Example #22 - текст песни, таба, видео

Регистрация Запомнить меня
Войти через:  Facebook Google Twitter Vk Yandex Mail.ru

Laurie Anderson - Example #22 - текст песни, таба, видео

Печатать
Просмотров: 103
Уроки эстрадного вокала в Санкт-Петербурге
^ÓExample #22^Ô
by Laurie Anderson

>From the album ^ÓBig Science^Ô (1982)

Tabs by Dylan Rush ^Ö all my own work

E------------------------------------------
A-----8----------6---------8----------6--6-
D---9--------------------9-----------------
G--------10--10---------------10--10-------
B------------------------------------------
E------------------------------------------

----------------------------------------------------|
---8----8---6-------8----------------^×--8----rpt----|
-9----9-----------9-------------------9------until--|
--------------------------10--10--10---------you-go-|
---------------------------------------------insane-|
----------------------------------------------------|

_________________________________________________________________
     
Добавлено: 15.12.2013
Другие материалы по этой песне:
  • Аккорды и текст

Страница создана 02.03.2012
http://primanota.ru/laurie-anderson/example-22-chords.htm
Привет, Гость.
Предлагаем пройти революционный курс по гитаре.
Подарок от PrimaNota.Ru, забирай!