PrimaNota.ru - самый крупный в мире бесплатный архив песенных текстов, аккордов, табулатур и нот


Laurence Juber - White Pass Trail - таба, видео

Регистрация Запомнить меня
Войти через:  Facebook Google Twitter Vk Yandex Mail.ru

Laurence Juber - White Pass Trail - таба, видео

Печатать
Просмотров: 87
Уроки эстрадного вокала в Санкт-Петербурге
                             The White Pass Trail                               
                                Laurence Juber

Tabber: gnomieowns
email: gnomieowns@hotmail.com (I seldomly check it)

I'd like to make it clear that I did nothing in the creation of this tab except
the addition of a bar, tabber's notes (noted with ---!), and the conversion to ASCII. 

All credit (except for tasks aforementioned) goes to "DRK HRSE", the original tabber.

-----------------------------------------------------------------------------------------

Acoustic - Fingerstyle
Tempo - 98 BPM

Open Dsus4 Tuning
Low-High
D (down 1 step)
A
D
G
a (down 1 step)
d (down 1 step)


      S  S S S S  S S  S S S  S S S S  E     S  S S S S  S S  S S S  S S E  E   
D||----------0----------------------------|---------0--------------------------|
A||--------0---3p-0------0----------------|-------0---3p-0------0--------------|
G||*--0h-2----------0h-2---2p-0---0-------|--0h-2----------0h-2---2p-0---0-----|
D||*----------------------------3---3p-0--|----------------------------3----0--|
a||---------------------------------------|--1---------------------------------|
d||---0-----------------------------------|------------------------------------|

                                       1_____________________________
                                                              ^       
  S  S S S S  S S  S S S  S S S S  E     S E  S S S S S E  E  Q       
---------0----------------------------|-----------------------0-----||
-------0---3p-0------0----------------|-------0---------------0-----||
--0h-2----------0h-2---2p-0---0-------|----0----0-------------2----*||
----------------------------3---3p-0--|--3--------3-0---0-----0----*||
--3-----------------------------------|--1------3-----3-------0-----||
--------------------------------------|--------------------3--0-----||

2_______________________
  S E  S S S  S S E  E     E  S S S  S S S E  S S S  S S S  
------------------------|-----0-0------0-0----0-0------0-0-|
-------0----------------|-----0-0------0-0----0-0------0-0-|
----0----0--------------|-----2-2------2-2----2-2------2-2-|
--3--------3p-0---0-----|------------------0---------------|
--1------3------3-------|---------0h-3---------------------|
---------------------3--|--0----------------------0h-3-----|

                                    ---!Here, hammer the bass and strum 
                                    ---!the open 0's on the high strings
                                    ---!with fingers.

  E  S S S  S S S E  S S S  S S S      S  S  S  S E  S S E  S S E  S S  
-----0-0------0-0----0-0------0-0-||---0-----0--0----0-0----0-0----0-0-|
-----0-0------0-0----0-0------0-0-||---0-----0--0----0-0----0-0----0-0-|
-----2-2------2-2----2-2------2-2-||*-------------2------0-------------|
------------------0---------------||*--0h-2h-3h-5---------------3------|
---------0h-3---------------------||-----------------------------------|
--0----------------------0h-3-----||-----------------------------------|


  E  S S E  S S S  S S S E  S S    S  S  S  S E  S S E  S S E  S S  
--0--0-0----0-0-------------0-0-|--0-----0--0----0-0----0-0----0-0-|
--0--0-0----0-0-------------0-0-|--0-----0--0----0-0----0-0----0-0-|
----------------------------0-0-|-------------2------0-------------|
--2------0------2p-0------------|--0h-2h-3h-5---------------3------|
---------------------3-1-0------|----------------------------------|
--------------------------------|----------------------------------|

1_____________________________________________  2_____________________________
  E  S S E  S S S  S E     E  E.   S E  Q         E  S S E  S S S  S E  E  E   
--0--0-0----0-0---------|-----0----0----0-----||--0--0-0----0-0------------0--|
--0--0-0----0-0---------|-----0----0-3--0-----||--0--0-0----0-0------------0--|
------------------------|-----2----2-2--2----*||------------------------------|
--2------0------2p-0----|----------0-0--0----*||--2------0------2p-0----0-----|
---------------------3--|------------3--------||---------------------3--------|
------------------------|--0------------------||------------------------------|

             

    E.  S S S  S  S  S S  S  S  S S  S  S  
|---0---0-0-------3p-0--------------------|
|---3---3-3---------------3--3p-0---------|
|*--0---0-0-------------------------------|
|*--2---2-2-0h-3p----0------------0h-3p-0-|
|---3---3-3------------0h-3p----0---------|
|---------------------------------0h-3p-0-|


  E.  S S S  S  S  S S  S  S S S S S  
--0---0-0-------7p-0----5p-0-2/3\2\0---|
--3---3-3-------------------------------|
--0---0-0-------------------------------|
--2---2-2-0h-7p----0-0h-5p-0-2/3\2\0----|
--3---3-3-------------------------------|
----------------------------------------|


  E.  S S S   S   S  S S   S  S S  S E     S E  S S S  S S E  E  Q       
--0---0-0--------12p-0----10p-0-5/7-0---|------------------------------||
--3---3-3-------------------------------|-------0----------------------||
--0---0-0-------------------------------|----0----0-------------------*||
--2---2-2-0h-12p-----0-0h-10p-0-5/7-0---|--3--------3p-0---3--5--0----*||
--3---3-3-------------------------------|--1------3------3-3--5--0-----||
----------------------------------------|------------------3--5--0-----||


  S E  S S S S  S Q    Q         S  S S S S  S S  S S S  S S S S  E   
----------------------------||----------0----------------------------|
-------0--------------------||--------0---3p-0------0----------------|
----0----0------------------||*--0h-2----------0h-2---2p-0---0-------|
--3--------3------3----5----||*----------------------------3---3p-0--|
--1------3---5p-3-3----5----||---------------------------------------|
------------------3----5----||---0-----------------------------------|


  S  S S S S  S S  S S S  S S E  E     S  S S S S  S S  S S S  S S S S  E   
---------0--------------------------|---------0----------------------------|
-------0---3p-0------0--------------|-------0---3p-0------0----------------|
--0h-2----------0h-2---2p-0---0-----|--0h-2----------0h-2---2p-0---0-------|
----------------------------3----0--|----------------------------3---3p-0--|
--1---------------------------------|--3-----------------------------------|
------------------------------------|--------------------------------------|


  S E  S S S  S S E  E  E  E       S E  S S S  S S S S E  Q     
-------------------------------||------------------------------|
-------0-----------------------||-------0----------------------|
----0----0--------------------*||----0----0--------------------|
--3--------3p-0---3--5--0-----*||--3--------3p-0---0-----------|
--1------3------3-3--5-----0---||--1------3------3-------------|
------------------3--5--0------||--------------------0-3--0----|


                                             |--3---|   
  W                    E     E     H         E  E  E   
-------------------|---------------------------------------|
-------------------|--10br---10b~-----------10brp-8--------|
-------------------|---------------------------------------|
-------------------|---------------------------------------|
-------------------|---------------------------------------|
--0----------------|---------------------------------------|


                                                 |--3--|  
   E    E     H.                E    E  H        E  E E  
---------------------------|---------------------------------|
--10b--10b~----------------|--3/5--3/5-----------3brp-0------|
---------------------------|---------------------------------|
---------------------------|---------------------------------|
---------------------------|---------------------------------|
---------------------------|---------------------------------|

  -----!Hammer very fast here.

  T  T  T  T E  E  E  T  T  T  T S  S Q       W                 
-------------------------------------------|-------------------|
-------------------------------------------|-------------------|
--1h-2p-1p-0-------------------------------|-------------------|
-------------3--L--0--3h-5p-3p-0-----------|-------------------|
---------------------------------3p-0------|-------------------|
--------------------------------------3----|--0----------------|


  ----!Somewhat tricky: on everything except bass notes,
  ----!produce "tapped" natural harmonics by hitting 12th
  ----!fret with finger (quite forcefully). 
  ----!Pick bass notes as usual with thumb.

    E  E  E  E  E  E  E  S  S  3x  E  E  E  E  E  E  S  S S  S  
|------0-----0-----0-----0-----||-----0-----0-----0------------|
|------0-----0-----0-----0-----||-----0-----0-----0------------|
|*-----2-----2-----2-----0h-2-*||-----2-----2-----2------------|
|*-----0-----0-----0-----0----*||-----0-----0-----0------------|
|------------------------------||--------------------3p-0------|
|---0-----0-----0-----0--------||--0-----0-----0----------0h-3-|


  E  E  E  E  E  E  E  S  S    E  E  E  E  E  E  S  S S  S  
-----0-----0-----0-----0----|-----0-----0-----0------------|
-----0-----0-----0-----0----|-----0-----0-----0------------|
-----2-----2-----2-----0h-2-|-----2-----2-----2------------|
-----0-----0-----0-----0----|-----0-----0-----0------------|
----------------------------|--------------------3p-0------|
--0-----0-----0-----0-------|--0-----0-----0----------0h-3-|


  E  E  E  E  E  E  E  S  S    E  E  E  E  E  S  S S  S S  S  
-----0-----0-----0-----0----|-----0-----0--------------------|
-----0-----0-----0-----0----|-----0-----0-----3p-0-----------|
-----2-----2-----2-----0h-2-|-----2-----2--------------------|
-----0-----0-----0-----0----|-----0-----0----------0h-3-0h-3-|
----------------------------|-----------------3p-0-----------|
--0-----0-----0-----0-------|--0-----0-----0-------0h-3-0h-3-|


   E  E  E  E  E  E  S  S S  S     E  E  E  E  E  E  S  S S  S  
------0-----0-----0------------|------0-----0-----0------------|
------0-----0-----0------------|------0-----0-----0------------|
------0-----0-----0------------|------0-----0-----0------------|
--/8--0-----0-----0--0h-3-0h-3-|--/8-----------------0h-8-0h-8-|
-------------------------------|-------------------------------|
--/8-----8-----8-----0h-3-0h-3-|--/8-----8-----8-----0h-8-0h-8-|


  E  S  S E  E  E  E  S  S S  S    E  S  S E  E  E  E  E  E    
-----0-------0-----0------------|-----0-------0-----0---------|
-----0-------0-----0--3p-0------|-----0-------0-----0---------|
-----0h-2----2-----2------------|-----0h-2----2-----2---------|
-----0-------0-----0-------3p-0-|-----0-------0-----0-----3---|
----------------------3p-0------|-----------------------------|
--0-------0-----0----------3p-0-|----------0-----0-----0--3---|


  E  E  E  E  E  E  S  S S  S    E  E  E  E  E  E  S  S S  S  
-----0-----0-----0------------|-----0-----0-----0------------|
-----0-----0-----0------------|-----0-----0-----0------------|
-----0-----0-----0------------|-----0-----0-----0------------|
-/8--0-----0-----0--0h-8-0h-8-|-----0-----0-----0--0h-8-0h-8-|
------------------------------|------------------------------|
-/8-----8-----8-----0h-8-0h-8-|--------8-----8-----0h-8-0h-8-|


  E  E  E  E  E  E  S  S S  S    E  S  S E  E  E  E  E  E   
-----0-----0-----0------------|-----0-------0-----0-----0--|
-----0-----0-----0--3p-0------|-----0-------0-----0-----0--|
-----2-----2-----2------------|-----0h-2----2-----2-----2--|
-------------------------3p-0-|-----0-------0-----0-----0--|
--------------------3p-0------|----------------------------|
--------8-----8----------3p-0-|----------0-----0-----0-----|


   
    ---!On X's, hit body of guitar for
    ---!percussive sound.

    guitar knock--|                       
                       |--3--|                 
    E            E     S  S S E  E  E  E  E   
|---------------------0h-3p-0----0-----------|
|-----------------------------3--------------|
|*--x------------x---------------------------|
|*--x------------x----0h-3p-0----0--3--5--3--|
|-----------------------------3-----3--5--3--|
|-----------------------------------3--5--3--|


  guitar knock --------|                             
                          |--3--|               
  E             S S S S S  S  S E  E E  E   
--------------------------0h-3p-0--------------|
----------------------------------3------------|
--x-------------x-x-x-x------------------------|
--x-------------x-x-x-x---0h-3p-0----3/5--7----|
----------------------------------3--3/5--7----|
-------------------------------------3/5--7----|


  guitar knock                            
                  |--3--|                 
  E            E  S  S  S E  E  E  E  E   
------------------0h-3p-0----0-----------|
--------------------------3--------------|
--x------------x-------------------------|
--x------------x--0h-3p-0----0--3--5--3--|
--------------------------3-----3--5--3--|
--------------------------------3--5--3--|

1_____________________________________  2____________________________________
  E   S  S S  S S  S S  S S  S  E E       E   S  S S  S S  S S  S E   E  E    
--0-----------------------------------||--0----------------------------------|
--0---3p-0-3p-0-3p-0-3p-0-------------||--0---3p-0-3p-0-3p-0-3p-0------------|
--2----------------------------------*||--2----------------------------------|
--0-----------------------3p-0S-5/3--*||--0-----------------------3p--0--3---|
--0---3p-0-3p-0-3p-0-3p-0-------------||--0---3p-0-3p-0-3p-0-3p-0------------|
--0-----------------------3p-0S-5/3---||--0-----------------------3p--0--3---|


  E  E  E  E  E  E  S  S S  S    E  E  E  E  E  E  S  S S  S  
-----0-----0-----0------------|-----0-----0-----0------------|
-----0-----0-----0------------|-----0-----0-----0------------|
-----0-----0-----0------------|-----0-----0-----0------------|
-/8--0-----0-----0--0h-8-0h-8-|--L--0-----0-----0--0h-8-0h-8-|
------------------------------|------------------------------|
-/8-----8-----8-----0h-8-0h-8-|--L-----8-----8-----0h-8-0h-8-|


  E  S  S E  E  S  S S  S S S  S S    E  S  S E  E  E  S  S S  S E    
-----0-------0--3p-0---------------|-----0-------0-----3p-0----------|
-----0-------0-------3p-0----------|-----0-------0----------3p-0-----|
-----0h-2----2---------------------|-----0h-2----2-------------------|
-----0-------0--3p-0------0-3p-0-3-|--0--0-------0-----3p-0------3---|
---------------------3p-0----------|------------------------3p-0-----|
--0-------0---------------0-3p-0-3-|--0-------0-----0------------3---|


  E  E  E  E  E  E  S  S S  S    E  E  E  E  E  E  S  S S  S  
-----0-----0-----0------------|-----0-----0-----0------------|
-----0-----0-----0------------|-----0-----0-----0------------|
-----0-----0-----0------------|-----0-----0-----0------------|
-/8--0-----0-----0--0h-8-0h-8-|--8--0-----0-----0--0h-8-0h-8-|
------------------------------|------------------------------|
-/8-----8-----8-----0h-8-0h-8-|--8-----8-----8-----0h-8-0h-8-|


  E  E  E  E  E  E  S  S S  S    E  S  S E  E  E  E  E  E   
-----0-----0-----0--3p-0------|-----0-------0-----0-----0--|
-----0-----0-----0-------3p-0-|-----0-------0-----0-----0--|
-----2-----2-----2------------|-----0h-2----2-----2-----2--|
-----0-----0-----0--3p-0------|-----0-------0-----0-----0--|
-------------------------3p-0-|----------------------------|
--0-----0-----0---------------|--0-------0-----0-----0-----|


  E.  S S E.   S  S   S  S   S  S  S S    Q     Q   Q    Q     
--0---0-0-----12-----------------------|------------------------|
--3---3-3--------15p-12----------------|------------------------|
--0---0-0---------------13p-12---------|------------------------|
--2---2-2----------------------15-12---|--8----10\--3----5------|
--3---3-3------------------------------|--8----10\--3----5------|
---------------------------------------|--8----10\--3----5------|


    S  S S S S  S S  S S S  S S S S  E     S  S S S S  S S  S S S  S S E  E   
|----------0----------------------------|---------0--------------------------|
|--------0---3p-0------0----------------|-------0---3p-0------0--------------|
|*--0h-2----------0h-2---2p-0---0-------|--0h-2----------0h-2---2p-0---0-----|
|*----------------------------3---3p-0--|----------------------------3----0--|
|---------------------------------------|--1---------------------------------|
|---0-----------------------------------|------------------------------------|

                                       1_____________________________
  S  S S S S  S S  S S S  S S S S  E     S E  S S S S  S E  E  Q       
---------0----------------------------|------------------------------||
-------0---3p-0------0----------------|-------0----------------------||
--0h-2----------0h-2---2p-0---0-------|----0----0-------------------*||
----------------------------3---3p-0--|--3--------3------3--5--0----*||
--3-----------------------------------|--1------3---5p-3-3--5--0-----||
--------------------------------------|------------------3--5--0-----||

2_____________________________
  S E  S S S  S S S S E  Q      
-------------------------0----||
-------0-----------------0----||
----0----0---------------2----||
--3--------3p-0---0------0----||
--1------3------3-------------||
--------------------0-3--0----||




Duration Legend
---------------
W - whole
H - half
Q - quarter
E - 8th
S - 16th
T - 32nd
X - 64th
. - note dotted
|-n-|  - n-tuplets


Tablature Legend
----------------
-----! - tabber's note
n________ - alternate endings
x - dead note
h - hammer on
p - pull off
b - bend
br - bendRelease
brp - bendRelease-pull off
pb - preBend
pbr - preBendRelease
brb - bendReleaseBend
/ or \ - slide
~ - vibrato

Добавлено: 02.03.2012
Вам также может быть интересно:
Другие материалы по этой песне:

Страница создана 02.03.2012
http://primanota.ru/laurence-juber/white-pass-trail-chords.htm
Привет, Гость.
Предлагаем пройти революционный курс по гитаре.
Подарок от PrimaNota.Ru, забирай!