PrimaNota.ru - самый крупный в мире бесплатный архив песенных текстов, аккордов, табулатур и нот


Laurence Juber - Stand By Me - таба, видео

Регистрация Запомнить меня
Войти через:  Facebook Google Twitter Vk Yandex Mail.ru

Laurence Juber - Stand By Me - таба, видео

Печатать
Просмотров: 143
This isnt it exactly but its pretty close. I just cant get the random strumming he does.
Drop D tuning for the bass part.
Bass part
E|-----------------------------------------------------------|
B|-----------------------------------------------------------|
G|-----------------------------------------------------------|
D|-----------------------------------------------------------|
A|-----------------------------------------------------------|
D|--2-6-7--7--2-6-7--7--7-6-4--4--2-4--4--4-2-0--0--0-4-2--2-|

melody
E|--------------------------------------------------------|
B|--------------------------------------------------------|
G|--6--9--11----6/9---2-4-6-4\2--2-4-6p4\2--2-4/6-4-2/4-2-|
D|--------------------------------------------------------|
A|--------------------------------------------------------|
D|--------------------------------------------------------|

E|-------------------------------------------------------------------|
B|-------------------------------------------------------------------|
G|-6--9-11--6-9-11--6-7-6-4-6-6p4-2-2/4-2--2-4-6p4-2--2-4/6--2-2/4-2-|
D|-------------------------------------------------------------------|
A|-------------------------------------------------------------------|
D|-------------------------------------------------------------------|

E|--------------------------------------------------------|
B|--5-7--5--7/10-9--7\5-7--7-5--2-3-2-0-2--2p0------------|
G|---------------------------------------------2--2-2/4-2-|
D|--------------------------------------------------------|
A|--------------------------------------------------------|
D|--------------------------------------------------------|

E|-----------------------------------------------------------|
B|-----------------------------------------------------------|
G|--2--4--6p4-2-4/6-4--2-2/4-2----6-4--2~--------------------|
D|-----------------------------------------------------------|
A|-----------------------------------------------------------|
D|-----------------------------------------------------------|

From there its about the same just mess around and youll get it, im still working on it 
thought id get you started. and if your wondering:
p=pull off
/=slide up
\=slide down
~=vibratio
Good luck
Добавлено: 03.06.2012
Вам также может быть интересно:
Другие материалы по этой песне:

Страница создана 30.04.2012
http://primanota.ru/laurence-juber/stand-by-me-chords.htm
Привет, Гость.
Предлагаем пройти революционный курс по гитаре.
Подарок от PrimaNota.Ru, забирай!