PrimaNota.ru - самый крупный в мире бесплатный архив песенных текстов, аккордов, табулатур и нот


Lauren Lapkus - With Special Guest Theme - таба, видео

Регистрация Запомнить меня
Войти через:  Facebook Google Twitter Vk Yandex Mail.ru

Lauren Lapkus - With Special Guest Theme - таба, видео

Печатать
Просмотров: 96
-------------------------------------------------------------------------------
WITH SPECIAL GUEST LAUREN LAPKUS (Theme) - Lauren Lapkus
-------------------------------------------------------------------------------
Tabbed by: J. Musco
E-mail: jcmusco@gmail.com

Lyrics by Lauren Lapkus
Music by Mike Malarkey
Vocals by Allison Bosma

NOTE: The theme is sung by Allison Bosma.  If you aren't friends
with her, then you may need to sing it yourself.  This song is hotter
than some Flamin' Hot Cheetos and yummier than a urinal cake.

If you ignore the stuff in parenthesis, that's closer to the bass. 
If you leave it in, it's more in line with the vocal syncopation.
The melody is somewhere in between.

I've tabbed this in two octaves.

Tuning: Standard (EADGBe)

(Opening Xylophone...)
       E    F    E    A    B    A    G
e|--------------------5------------------------------------------------------|
B|-----5----6----5-----------------------------------------------------------|
G|-------------------------4----2----0---------------------------------------|
D|---------------------------------------------------------------------------|
A|---------------------------------------------------------------------------|
E|---------------------------------------------------------------------------|
       E    C    D    (C) (D) E   G    A    C
      She's the host but she's also the guest...
       E    C    D    (C) (C) C   D    E    C
e|--------------------------------3----5----8--------------------------------|
B|-----5---------3--------(3)-5----------------------------------------------|
G|----------5---------(5)----------------------------------------------------|
D|---------------------------------------------------------------------------|
A|---------------------------------------------------------------------------|
E|---------------------------------------------------------------------------|

    ...And the.....guest is the host, so she's not real-ly the host...
       B    A       G    E    D    C  (A) (C)   G    G  E   D    C
e|-----7----5-------3---------------------------3----3-----------------------|
B|-----------------------5----3-------------------------5---3----------------|
G|---------------------------------5--(2)-(5)--------------------5-----------|
D|---------------------------------------------------------------------------|
A|---------------------------------------------------------------------------|
E|---------------------------------------------------------------------------|

...'cause it's "With Special Guest...      Lau-ren  Lap-kus
       C   A    C   D   E    G  (A) (G)   G    E    D    C
e|---------------------------3--(5)-(3)---3----------------------------------|
B|------------------3---5----------------------5----3------------------------|
G|-----5---2----5----------------------------------------5-------------------|
D|---------------------------------------------------------------------------|
A|---------------------------------------------------------------------------|
E|---------------------------------------------------------------------------|

...with your host, who's somebody else
       A    C       G    E    D    C
e|------------------3-----------------------------------------|
B|-----------------------5----3-------------------------------|
G|-----2----5----------------------5--------------------------|
D|------------------------------------------------------------|
A|------------------------------------------------------------|
E|------------------------------------------------------------|



BASS TAB
(Opening Xylophone...)
       E    F    E    A    B    A    G
G|---------------------------------------------------------------------------|
D|--------------------7------------------------------------------------------|
A|-----7----8----7-----------------------------------------------------------|
E|-------------------------7----5----3---------------------------------------|

      She's the host but she's also the guest...
       E    C    D    (C) (D) E   G    A    C
G|-------------------------------------2----5--------------------------------|
D|----------------------------2---5------------------------------------------|
A|-----7----3----5----(3)-(5)------------------------------------------------|
E|---------------------------------------------------------------------------|

    ...And the.....guest is the host, so she's not real-ly the host...
       B    A       G    E    D    C  (A) (C)   G    G  E   D    C
G|-----4----2----------------------------------------------------------------|
D|------------------5----2----------------------5----5--2--------------------|
A|----------------------------5----3--(0)-(3)---------------5----3-----------|
E|---------------------------------------------------------------------------|

...'cause it's "With Special Guest...      Lau-ren  Lap-kus
       C   A    C   D   E    G  (A) (G)    G    E    D    C
G|------------------------------(2)------------------------------------------|
D|----------------------2----5------(5)----5----2----------------------------|
A|-----3--------3---5--------------------------------5----3------------------|
E|---------5-----------------------------------------------------------------|

...with your host, who's somebody else
       A    C       G    E    D    C
G|------------------------------------------------------------|
D|------------------5----2------------------------------------|
A|----------3-----------------5----3--------------------------|
E|-----5------------------------------------------------------|


************************************

Find Lauren here:
Twitter: @LaurenLapkus
Facebook.com/LaurenLapkus
www.LaurenLapkus.com

Listen to "With Special Guest Lauren Lapkus" at...
earwolf.com/show/with-special-guest-lauren-lapkus/
(Don't forget to subscribe!)

Purchase the theme on iTunes:
http://itun.es/us/VzTC6

More music by Mike Malarkey here:
https://soundcloud.com/mmalarkey
Добавлено: 28.12.2015
Другие материалы по этой песне:
  • Аккорды и текст

Страница создана 28.12.2015
http://primanota.ru/lauren-lapkus/with-special-guest-theme-chords.htm
Привет, Гость.
Предлагаем пройти революционный курс по гитаре.
Подарок от PrimaNota.Ru, забирай!