PrimaNota.ru - самый крупный в мире бесплатный архив песенных текстов, аккордов, табулатур и нот


Lauren Aquilina - Fools - таба, видео

Регистрация Запомнить меня
Войти через:  Facebook Google Twitter Vk Yandex Mail.ru

Lauren Aquilina - Fools - таба, видео

Печатать
Просмотров: 131
Intro & Verse:

|------------------|------------------|--------------|--------------|
|------------------|------------------|--------------|--------------|
|---11--11--11--11-|---12--12--12--12-|---7--7--7--7-|---6--6--6--6-|
|------------------|------------------|--------------|--------------|
|------------------|------------------|--------------|--------------|
|-10--10--10--10---|-12--12--12--12---|-7--7--7--7---|-5--5--5--5---| 

Pre-Chorus:

|--------------|--------------|--------------|--------------|
|--------------|--------------|--------------|--------------|
|---4--4--4--4-|---6--6--6--6-|---7--7--7--7-|---4--4--4--4-|
|--------------|--------------|--------------|--------------|
|--------------|--------------|--------------|--------------|
|-3--3--3--3---|-5--5--5--5---|-7--7--7--7---|-3--3--3--3---|


|--------------|--------------|--------------|--------------|
|--------------|--------------|--------------|--------------|
|---4--4--4--4-|---6--6--6--6-|---7--7--7--7-|---6--6--6--6-|
|--------------|--------------|--------------|--------------|
|--------------|--------------|--------------|--------------|
|-3--3--3--3---|-5--5--5--5---|-7--7--7--7---|-5--5--5--5---|

Chorus:

|--------------|------------------|--------------|--------------|
|--------------|------------------|--------------|--------------|
|---4--4--4--4-|---11--11--11--11-|---7--7--7--7-|---6--6--6--6-|
|--------------|------------------|--------------|--------------|
|--------------|------------------|--------------|--------------|
|-3--3--3--3---|-10--10--10--10---|-7--7--7--7---|-5--5--5--5---|

|--------------|------------------|--------------|--------------|
|--------------|------------------|--------------|--------------|
|---4--4--4--4-|---11--11--11--11-|---6--6--6--6-|---6--6--6--6-|
|--------------|------------------|--------------|--------------|
|--------------|------------------|--------------|--------------|
|-3--3--3--3---|-10--10--10--10---|-5--5--5--5---|-5--5--5--5---|

|--------------|------------------|--------------|--------------
|--------------|------------------|--------------|--------------|
|---4--4--4--4-|---11--11--11--11-|---6--6--3--3-|---7--7--7--7-|
|--------------|------------------|--------------|--------------|
|--------------|------------------|--------------|--------------|
|-3--3--3--3---|-10--10--10--10---|-5--5--2--2---|-7--7--7--7---|

|--------------|--------------|------------------|
|--------------|--------------|------------------|
|---7--7--6--6-|---4--4--4--4-|---11--11--11--11-|
|--------------|--------------|------------------|
|--------------|--------------|------------------|
|-7--7--5--5---|-3--3--3--3---|-10--10--10--10---| 
Добавлено: 26.10.2014
Другие материалы по этой песне:
  • Аккорды и текст

Страница создана 26.10.2014
http://primanota.ru/lauren-aquilina/fools-chords.htm
Привет, Гость.
Предлагаем пройти революционный курс по гитаре.
Подарок от PrimaNota.Ru, забирай!