PrimaNota.ru - самый крупный в мире бесплатный архив песенных текстов, аккордов, табулатур и нот


Laura Stevenson And The Cans - Halloween One And Two - таба, видео

Регистрация Запомнить меня
Войти через:  Facebook Google Twitter Vk Yandex Mail.ru

Laura Stevenson And The Cans - Halloween One And Two - таба, видео

Печатать
Просмотров: 65
Laura Stevenson - Halloween One and Two

Intro:
E|------------------------------------------------------------------------------|
A|------------------------------------------------------------------------------|
D|-0-0-0-0----0--0--0-0-0-0-0-0-0-0-0-----0-0-0-0----0--0--0-0-0-0-0-----0-0----|
G|5-5-5-5-5/10-10-10-9-5-5-5-0-4-4-4-2h4-5-5-5-5-5/10-10-10-9-5-5-5-0h4-5-5-5---|
B|------------------------------------------------------------------------------|
e|------------------------------------------------------------------------------|

   "I am underneath"                                        "I am underneath"            
       "Watch me..."
E|-----------------------------------------------------------------------------|
A|-----------------------------------------------------------------------------|
D|-0-0-0-0----0--0--0-0-0-0-0-0-0-0-0-----0-0-0-0----0--0--0-0-0-0-0-0-0-0-0-0-|
G|5-5-5-5-5/10-10-10-9-5-5-5-0-4-4-4-2h4-5-5-5-5-5/10-10-10-9-5-5-5-5-5-5-4-0--|
B|-----------------------------------------------------------------------------|
e|-----------------------------------------------------------------------------|

     "...Take your life.    Watch me take your..."
E|----------------3---3---3---2-------------------|
A|2-2-2-2--2---2----2---2---2---0-2-2-2-2--2---2--|
D|-2---2--3-3-3-3--0-0-0-0-0-0-0-0-2---2--3-3-3-3-|
G|---0---0---0---0-------------------0---0---0---0|
B|------------------------------------------------|
e|------------------------------------------------|

"...lifeeeeeeee"
E|------------------------------------------------------------------------------|
A|------------------------------------------------------------------------------|
D|-0-0-0-0----0--0--0-0-0-0-0-0-0-0-0-----0-0-0-0----0--0--0-0-0-0-0-----0-0----|
G|5-5-5-5-5/10-10-10-9-5-5-5-0-4-4-4-2h4-5-5-5-5-5/10-10-10-9-5-5-5-0h4-5-5-5---|
B|------------------------------------------------------------------------------|
e|------------------------------------------------------------------------------|


   "I am overlooked"                    "I hear every word you say, watch what you say..."
E|-----------------------------------------------------------------------------|
A|-----------------------------------------------------------------------------|
D|-0-0-0-0----0--0--0-0-0-0-0-0-0-0-0-----0-0-0-0----0--0--0-0-0-0-0-0-0-0-0-0-|
G|5-5-5-5-5/10-10-10-9-5-5-5-0-4-4-4-2h4-5-5-5-5-5/10-10-10-9-5-5-5-5-5-5-4-0--|
B|-----------------------------------------------------------------------------|
e|-----------------------------------------------------------------------------|

"...I am underneath  I am underneath"
E|----------------3---3---3---2-------------------|
A|2-2-2-2--2---2----2---2---2---0-2-2-2-2--2---2--|
D|-2---2--3-3-3-3--0-0-0-0-0-0-0-0-2---2--3-3-3-3-|
G|---0---0---0---0-------------------0---0---0---0|
B|------------------------------------------------|
e|------------------------------------------------|

                 "Eeeeeeeeyeaaaaaahh  Eeeeeeeyeaaaaaahhh  Eeeeeeyeaeaaaahhhhaaaaaahhhhhhhh"
E|----------------------------------------------------------------------------|
A|----------------------------------------------------------------------------|
D|-0-0-0-0----0--0-0-0-0-0-0-0----0--0-0-0-0-0-0-0----0--0-0-0-0-0-0-0-0-0-0--|
G|5-5-5-5-5/10-10-9-9-5-5-5-5-5/10-10-9-9-5-5-5-5-5/10-10-9-9-5-5-5-5-4-4-0-0-|
B|----------------------------------------------------------------------------|
e|----------------------------------------------------------------------------|

Then go into an Em chord and from here on we're just slamming on Em, C, and G chords in 
repeat until whenever you feel like having the intense part be over.

(I'm writing this with the intent of only having a guitar to play the song)

After that's done, go back into fingerpicking the Intro again for a couple passes or 
whatever you like and then when you want to end, the outro goes something like this:

E|-----------------------------------------------------|
A|----------------------------------(ritardando)-------|
D|-0-0-0-0----0--0--0-0--0--0--0-0--0-0-0-0-0-0-0----0-|
G|5-5-5-5-5/10-10-10-9-12-12-12-9-10-9-7-4-5-5-5-0h4-5-|
B|-----------------------------------------------------|
e|-----------------------------------------------------|
Добавлено: 01.07.2013
Другие материалы по этой песне:
  • Аккорды и текст

Страница создана 01.07.2013
http://primanota.ru/laura-stevenson-and-the-cans/halloween-one-and-two-chords.htm
Привет, Гость.
Предлагаем пройти революционный курс по гитаре.
Подарок от PrimaNota.Ru, забирай!