PrimaNota.ru - самый крупный в мире бесплатный архив песенных текстов, аккордов, табулатур и нот


Laura Stevenson And The Cans - Eleonora - таба, видео

Регистрация Запомнить меня
Войти через:  Facebook Google Twitter Vk Yandex Mail.ru

Laura Stevenson And The Cans - Eleonora - таба, видео

Печатать
Просмотров: 112
Eleonora by Laura Stevenson and the Cans

Capo on 1st fret



Intro: G - Em - B - C - (x4)

Main Lead Part:            A.                         1.                          2.  
e|---------------------------|--------------------------||--------------------------||------------|
B|-12-------------12---------|----------------------13--||----------------------15--||-/17~~~-----|
G|-----12-------------12-----|----------11b-----12------||----------11b-----12------||------------|
D|---------12h14----------14-|-13b--14------14----------||-13b--14------14----------||------------|
A|---------------------------|--------------------------||--------------------------||------------|
E|---------------------------|--------------------------||--------------------------||------------|
(play A1-A2 twice)


Verse 1:
Em       G            C         G  G/F# 
     Call me from the capital, 
Em      G     Am           C *
     only  together as you try to come off. 
Em        G              C              G      G/F#
  When you need me, it's half a world to reach me. 
Em       G           Am       C          Am                  C 
    Selfishly  your permanent drain, I am locked inside the places we're the same. 


Em      B             C                 G      G/F#
     I know that it's trying and you're tired of hearing it, 
Em      B      C               Cm
  but nobody  else has time to listen how to. 


Pre-Chorus:
G            Em      B         C
  So can you please  do it for me, 
G         Em      B          C
  this'll be the last that I ask I promise. 
G       Em         B               C               D
    Eleonora, it's fine you know I never wanted to ignore ya. 


Chorus:
G - Em - B - C - (x4)
(with Main Lead Part)



Verse 2:
Em             G            C                  G        G/F#
   Sleeping on hard wood is harder when you're hardly any good 
Em            G                  Am             C
    and every sound hits so much louder than it should. 
Em                G              C       G      G/F#
Where's the one who'll make the ringing go away? 
Em            G            Am      C               Am              C
     You're built of much sturdier stuff, while I'm piled high and loose and could use some luck. 


Em      B              C         G      G/F#
    I know you've been dying to move forward, 
Em        B       C           Cm 
   but no one can make it go away the way you do. 


Pre-Chorus 2:
G            Em     B         C
  So can you please do it for me, 
G        Em      B        C
     my monument   is my failure to answer. 
G       Em          B              C               D    
    Eleonora, it's fine you know I never wanted to ignore ya. 


Bridge:
C - Em - D - D - (x2)

  C          Em      B                    C      
Oh won't you kindly pick the pins and needles off me


Chorus:
(Main Lead Part)

G - Em - B - C - (x4)

End on G




*Lead Fill
e|-15-15-15------------|
B|-13-13-13------------|
G|-12-12-12------------|
D|---------------------|
A|---------------------|
E|---------------------|

Pre-Chorus Lead Part:
e|-------------------------------------------|----------------------------------------|
B|-------------------------------------------|-------------------------------------1--|
G|----------------------2--0-----------------|----------------------2--0--------0-----|
D|----------------------------0--2-----------|----------------------------0--2--------|
A|------------------------------------0-2-0--|----------------------------------------|
E|-3--------\0-------------------------------|-3------3--2--0-------------------------|

e|-----------------------------------------|---------------------------------|
B|-0---------------------------------------|------------------7-7-7-7-7-7...-|
G|-----0-----------------2--0--------0-----|------------------7-7-7-7-7-7...-|
D|---------0-------------------0--2-----2--|-4----------------7-7-7-7-7-7...-|
A|-----------------------------------------|------------------5-5-5-5-5-5...-|
E|-----------0-----------------------------|---------------------------------|


Chords:
   G   Em  B   C   Am  G/F#  Cm   D
e|-3---7---7---8---5---------8----5---|
B|-3---8---7---8---5---------8----7---|
G|-4---9---8---9---5---4-----8----7---|
D|-5---9---9---10--7---5-----10---7---|
A|-5---7---9---10--7---5-----10---5---|
E|-3---0---7---8---5---2-----8--------|


-Everything is relative to the capo.
-You could most likely play this without the capo (everything up a half step)
and you would only miss out on the low open note on the Em chord.
-Also live they play it without a capo (in G instead of G#).
-The Pre-chorus Lead is pretty hard to hear but I tried my best.

I hope this is helpful
Добавлено: 06.12.2015
Другие материалы по этой песне:
  • Аккорды и текст

Страница создана 06.12.2015
http://primanota.ru/laura-stevenson-and-the-cans/eleonora-chords.htm
Привет, Гость.
Предлагаем пройти революционный курс по гитаре.
Подарок от PrimaNota.Ru, забирай!