PrimaNota.ru - самый крупный в мире бесплатный архив песенных текстов, аккордов, табулатур и нот


Laura Shigihara - For River To The Moon - таба, видео

Регистрация Запомнить меня
Войти через:  Facebook Google Twitter Vk Yandex Mail.ru

Laura Shigihara - For River To The Moon - таба, видео

Печатать
Просмотров: 368
This tab is a "guitar friendly" version of this song. It is a tab for the main melody. I 
put a lot of time into learning this by ear and I hope you enjoy it.

=Part I
E-----------3---------------5--3-------------|
B--5-5-5--------5-5-5------------5-----------|
G--------5------------5------------5---------|
D------------------------------------5--7/5--|
A--------------------------------------------|
E--------------------------------------------|
=
=
E---------------------------------------------3-5-3-5--[3]--|
B--1-1-1-3-1----------------------1-1-1-3-1/3----------[5]--|
G------------4--0--2--0--2--2/4-4----------------------[5]--|
D-----------------------------------------------------------|
A-----------------------------------------------------------|
E-----------------------------------------------------------|
=
=
E------------------|
B--6-6-6-5---------|
G-----------5p0-7--|
D------------------|
A------------------|
E------------------|
=
=
E-------------------------------5--3--1--0-1-0-----------|
B----5-3-1-3-5---1-1-3-5---1-1-----------------1/3-------|
G--0-----------------------------------------------0--0--|
D--------------------------------------------------------|
A--------------------------------------------------------|
E--------------------------------------------------------|
=
=
E--------------------------------------------------------3--5--|
B--5--3--1--3--5---1-1-3-5-3---1--3--5--1---1--3--0----5-------|
G--------------------------------------------------------------|
D--------------------------------------------------------------|
A--------------------------------------------------------------|
E--------------------------------------------------------------|
=
=
E---------------------|
B--------5--3----3----|
G--0-0--------5----5--|
D---------------------|
A---------------------|
E---------------------|
=
=Part II
E----------3-----------5--3--------------|
B--5-5-5------5-5-5---------5------------|
G--------5----------5---------5-----2-0--|
D-------------------------------5--------|
A----------------------------------------|
E----------------------------------------|
=
=
E---------------------------------------------------------1--|
B--1-1-1-3-1-3-3/5----------------1-1-1-3-1-3-3---5--3--5----|
G------------------2-2---2-2/4-4-----------------------------|
D------------------------------------------------------------|
A------------------------------------------------------------|
E------------------------------------------------------------|
=
This part can be played one or two ways, either like this:
=
E---------------------------------------------------------------------|
B------------------------------------------------------10--8--10-[3]--|
G--5-5-5--7--5--7--7--9-------------5-5-5--7--5--7--7------------[5]--|
D------------------------7-7--7/9-9------------------------------[5]--|
A---------------------------------------------------------------------|
E---------------------------------------------------------------------|
=
Or like this
=
E--------------------------------------------------|
B--13-13-13--15--13--15--15--17--------------------|
G--------------------------------14--14--14/16-16--|
D--------------------------------------------------|
A--------------------------------------------------|
E--------------------------------------------------|
= (Continued)
E----------------------------17--15--17--[3]--|
B--13-13-13--15--13--15--15--------------[5]--|
G----------------------------------------[5]--|
D---------------------------------------------|
A---------------------------------------------|
E---------------------------------------------|
= It's up to you
=
E--13-13-13-12-----------|
B--------------13----15--|
G-----------------12-----|
D------------------------|
A------------------------|
E------------------------|
=
=
E--------------------|
B--17-15-13-15-17~---|
G--------------------|
D--------------------|
A--------------------|
E--------------------|
=
=
E----------------------------17--15--13--12-13-12----------[3]-[3]--|
B--13-13--15--17~----13--13------------------------13--15--[5]-[5]--|
G----------------------------------------------------------[5]-[5]--|
D-------------------------------------------------------------------|
A-------------------------------------------------------------------|
E-------------------------------------------------------------------|
=
=
E-------------------|
B--17-15-13-15-17~--|
G-------------------|
D-------------------|
A-------------------|
E-------------------|
=
=
E------------------------------------------------12--15--17--|
B--13-13--15-17--15----13-15-17--13-13---15--12--------------|
G------------------------------------------------------------|
D------------------------------------------------------------|
A------------------------------------------------------------|
E------------------------------------------------------------|
=
= Gradually slow
E-------------13-12-------------|
B--(12)--------------13--15-13--|
G-------12-12-------------------|
D-------------------------------|
A-------------------------------|
E-------------------------------|
Добавлено: 24.11.2013
Другие материалы по этой песне:
  • Аккорды и текст

Страница создана 24.11.2013
http://primanota.ru/laura-shigihara/for-river-to-the-moon-chords.htm
Привет, Гость.
Предлагаем пройти революционный курс по гитаре.
Подарок от PrimaNota.Ru, забирай!