PrimaNota.ru - самый крупный в мире бесплатный архив песенных текстов, аккордов, табулатур и нот


Laura Pausini - Un 'Emergenza D'Amore - текст песни, таба, видео

Регистрация Запомнить меня
Войти через:  Facebook Google Twitter Vk Yandex Mail.ru

Laura Pausini - Un 'Emergenza D'Amore - текст песни, таба, видео

Печатать
Просмотров: 131
		   Spero sia venuta decente.
Ci tengo a dei vostri pareri e alle correzioni
Buona suonata!

(Courier new)

TITOLO:  Un'emergenza d'amore
ARTISTA: Laura Pausini
TRASCRIZIONE: B[Ar]T      www.guitartabs.supereva.it  >>


INTRO:

Bb C Dm  x4


RIFF_1

e--5-3---------------------5-3----------------    |
B------6-5-3--6-5---3----------6-5-3--6-5-----    |
G-----------------5-----------------------5-2-    | ( x2 volte )
D---------------------------------------------    |
A---------------------------------------------    |
E---------------------------------------------    |

RIFF_2

e--5-3--------
B------6-5-3--
G-------------
D-------------
A-------------
E-------------

STROFA:

Bb     C        Dm
È un'emergenza d'amore
Bb      C      Dm
il mio bisogno di te
Solm   Am     Bb
un desiderio così speciale
       Solm          Am       Dm
che assomiglia a un dolore per me


RIFF_2

e--5-3--------
B------6-5-3--
G-------------
D-------------
A-------------
E-------------

STROFA:

è un'emergenza d'amore
e no, non si chiede perché
è un canto libero, verso il mare
questo viverti dentro di me.


Cm7              Bb
Sei il vino e il pane
A7          Dm
un'esigenza naturale
Cm7        Bb
sei un temporale che
         A7
porta il sole da me, dolcemente.

RITORNELLO:
                     Bb      C   Dm
E spiazzi il cuore ed io, ti porterò
               Bb     C       Dm
dentro le mie tasche, ovunque andrai
          Solm    Am   Bb
come una moneta, un amuleto
              Solm  Am  Dm
che tra le mie mani, cullerò.

RIFF_3

e--5-3---------------------5-3----------------
B------6-5-3--6-5---3----------6-5-3----------
G-----------------5---------------------------
D---------------------------------------------
A---------------------------------------------
E---------------------------------------------

STROFA:

È un'emergenza d'amore
RIFF_2
questo volerti per me
RIFF_2
averti addosso per non fare asciugare
RIFF_2
dalla bocca il sapore di te.


Sei il bene e il male
una battaglia un carnevale
sei la passione che
no, non ha tregua per me, dolcemente.


RITORNELLO:

E spiazzi il cuore ed io, ti porterò
dentro le mie tasche, ovunque andrai andrai
come una moneta, un amuleto
che tra le mie mani, stringerò.


Solm          Am Dm
Sei la mia prigione
  Solm            Am
l'evasione dentro me
C#        Cm  Fm
oltre la ragione
    Sibm                  C
solamente io conosco cosa c'è
                          C# D# Fm
quell'amore che io ho per te.


RIFF_4

e--8-6---------------------8-6----------6-11-8--
B------9-8-6--9-8---6----------9-8-6--9----------
G-----------------8------------------------------
D------------------------------------------------
A------------------------------------------------
E------------------------------------------------

              C#      D#       Fm
dentro le mie tasche, ovunque andrai

            Sibm  C      C#
come un incante____simo segreto
             Sibm  Cm7   Fm
per i giorni vuoti che vivrò
                       C#     D#    Fm
per inseguirti in ogni viaggio, che farai
              C#      D#      Fm
dentro le mie tasche, ovunque andrai
          Sibm     DO  C#
come una moneta, un amuleto

e--8-6------------------
B------9-8-6--9-8---6---
G-----------------8-----
D-----------------------
A-----------------------
E-----------------------

              Sibm    Cm7  Fm
che tra le mie mani, stringerò.

STRUM:

C# D# Fm    |
C# D# Fm    |
Sibm C C#    | ad libitum sfumando
Sibm Cm7 Fm  |

Suonare su questi ultimi accordi il RIFF_4


CIAO!!!


***********************************
                  @@  B[Ar]T @@

  E-MAIL       guitartabs@supereva.it
  SITE:            www.guitartabs.supereva.it
  #ICQ :          60934436
***********************************


     
Добавлено: 13.11.2013
Другие материалы по этой песне:
  • Аккорды и текст

Страница создана 03.05.2012
http://primanota.ru/laura-pausini/un-emergenza-damore-chords.htm
Привет, Гость.
Предлагаем пройти революционный курс по гитаре.
Подарок от PrimaNota.Ru, забирай!