PrimaNota.ru - самый крупный в мире бесплатный архив песенных текстов, аккордов, табулатур и нот


Laura Marling - I Was Just A Card - текст песни, таба, видео

Регистрация Запомнить меня
Войти через:  Facebook Google Twitter Vk Yandex Mail.ru

Laura Marling - I Was Just A Card - текст песни, таба, видео

Печатать
Просмотров: 112
laura marling - I was just a card
tuning DADF#AD
No capo or or on 2nd fret, this version is tabbed with no capo

intro - listen to the track to figure out what to play when.
  D|-----------------------------------------------------------0-------------------------|
  A|-------------------------------------------------------0-----0-----------------------|
  F#|---------------------------------10-----12------------------------------------------|
  D|------12----11-----------9-----------------------------------------------------------|
  A|-------------------------------------------------------------------------------------|
  D|-------------------------------------------------------------------------------------|

"you know you know"
you can either strum or figure out a pattern alternating in picking the top a and d 
strings mostly,

                   'you           know    you   know
  D|--------------0----------0---------0-------0-----------------------------------------|
  A|-------------12--------10---------11-----9-------------------------------------------|
  F#|-----------12---------12---------0------0-------------------------------------------|
  D|--------------0----------0---------11-----11-----------------------------------------|
  A|--------------0----------0----------0-------0----------------------------------------|
  D|--------------0----------0----------0-------0----------------------------------------|

  D|-------------9---------/---------7-------/--------5---------5----|
  A|-------------0---------/---------0-------/--------0----------0---|
  F#|------------10-------/---------8------/---------6----------5----|
  D|-------------0---------/---------0------/---------0----------0---|
  A|-------------0---------/---------0-------/---------0----------0--|
  D|-------------0---------/---------0-------/---------0----------0--|


  D|--------------0h3--|
  A|-------------------|
  F#|-------3----------|
  D|-------------------|
  A|-------------------|
  D|-------------------|

"never found a solid ground  till i found that man...... till i found that man"
  D|---------------------------------------------------------------------------------|
  A|------------9------------------7--------------5-------------------------------7--|
  F#|---------------------------------------------------------9-----------7----------|
  D|-----------9----------------7-----------5------------------------9---------------|
  A|---------------------------------------------------------------------------------|
  D|---------------------------------------------------------------------------------|

"you were looking at me think who am I"
D|------------ 10--|
  A|-----------10--|
  F#|--------------|
  D|----------8----|
  A|---------------|
  D|----------9----|
 --
D|-----------------------------------------------------|
  A|---------------------------------------------------|
  F#|--------------------------------------------------|
  D|---------------------------------------------------|
  A|---------------------------------------------------|
  D|----------5----------4---------5----------------4--|

Improvise on the song, when i have a better understanding i will update this tab to a
better more accurate version, but
the best thing you can do is try and learn by ear and again, improvise, it makes the
song a whole lot more exciting to play.
Добавлено: 21.08.2013
Другие материалы по этой песне:
  • Аккорды и текст

Страница создана 21.08.2013
http://primanota.ru/laura-marling/i-was-just-a-card-chords.htm
Привет, Гость.
Предлагаем пройти революционный курс по гитаре.
Подарок от PrimaNota.Ru, забирай!