PrimaNota.ru - самый крупный в мире бесплатный архив песенных текстов, аккордов, табулатур и нот


Laura Marling - I Feel Your Love - таба, видео

Регистрация Запомнить меня
Войти через:  Facebook Google Twitter Vk Yandex Mail.ru

Laura Marling - I Feel Your Love - таба, видео

Печатать
Просмотров: 101
Авторы: Laura Marling

Tuning: DADFAD

This is for the live version here: https://www.youtube.com/watch?v=SQA2Z9oDmgM not the album version

Intro:
[----------0---0-0-0---0---0-0-0----]
[----------0---5\3/5---0---3/5\3----]
[-5-7-9-11-0---4\2/4---0---2/4\2----]
[-0-0-0-0--0---0-0-0---0---0-0-0----]
[-x-x-x-x--0---5\3/5---0---3/5\3----]
[-5-7-8-10-0---0-0-0---0---0-0-0--2-]

Verse:
[-0---0-]
[-5---3-]  Keep your love around me
[-4---2-]  Keep your love around me so I can never know what's going on
[-0---0-]
[-5---3-]
[-0---0-]

[-----5-]
[-----5-]  What's going on
[----5--]
[---5---]
[--5----]
[-5-----]

[-0---0-0-0---0---0-0-0----]
[-0---2\4/2---0---2/4\2----]
[-0---3\5/3---0---3/5\3----]
[-0---0-0-0---0---0-0-0----]
[-0---2\4/2---0---2/4\2----]
[-0---0-0-0---0---0-0-0--2-]

[-0---0-]
[-5---3-]  Let the river answer
[-4---2-]  Let the river answer so I can get along
[-0---0-]
[-5---3-]
[-0---0-]

[-----5------5-]
[-----5------5-]  An electric fence
[----5------5--]  Silent defense to you all
[---5------5---]
[--5------5----]
[-5------5-----]

[-0---0-0-0---0---0-0-0----]
[-0---3\5/3---0---3/5\3----]
[-0---2\4/2---0---2/4\2----]
[-0---0-0-0---0---0-0-0----]
[-0---3\5/3---0---3/5\3----]
[-0---0-0-0---0---0-0-0--2-]

[-5---3-]
[-5---3-]  You let me in
[-5---4-]  I loved you then
[-5---3-]  First taste is free
[-5---3-]       
[-5---3-]

[----------]
[----------]  Then you had me
[-5-7-9-11-]
[-0-0-0-0--]
[-x-x-x-x--]
[-5-7-8-10-]


Then repeat all that again for the next verse, listen or watch the video for which parts come where.
Добавлено: 17.11.2015
Другие материалы по этой песне:
  • Аккорды и текст

Страница создана 17.11.2015
http://primanota.ru/laura-marling/i-feel-your-love-chords.htm
Привет, Гость.
Предлагаем пройти революционный курс по гитаре.
Подарок от PrimaNota.Ru, забирай!