PrimaNota.ru - самый крупный в мире бесплатный архив песенных текстов, аккордов, табулатур и нот


Laura Marling - I Am A Master Hunter - таба, видео

Регистрация Запомнить меня
Войти через:  Facebook Google Twitter Vk Yandex Mail.ru

Laura Marling - I Am A Master Hunter - таба, видео

Печатать
Просмотров: 134
Laura Marling - I am a master hunter.
tuning: CGCECG 
DADF#AD 
CGCGGC  
C#G#C#G#G#F 
( it sounds Ok with either tuning though I'm not 100% its the one she actually uses. try dropping the G to D maybe..) 
capo 3rd fret

tabbed by: Gabby

pretty much strum all of the 'chords' but try and pick out the pull offs :)
G|-------------------------------------------------------------------------------|
C|-------------------------------------------------------------------------------|
E|-------------------------------------------------------------------------------|
C|-------------------------------------------------------------------------------|
G|-----3p0-------------------------3p0-------------------------------------------|
C|--------------3-----0-----------------------3---------0------------------------|

' i am a master hunter'
G|------------------------0------------------------------------------------------|
C|------------------------0------------------------------------------------------|
E|------------------------0------------------------------------------------------|
C|------------------------0------------------------------------------------------|
G|-------5---3--2-------0----------0p3-------------------------------------------|
C|------------------------0--------------------3p0----3p0---0--------------------|

'i cured my skin, now nothing gets in, nothing not as hard as it tries.'
G|-------------------------------------------------------------------------------|
C|-------------------------------------------------------------------------------|
E|-------------------------------------------------------------------------------|
C|-------------------------------------------------------------------------------|
G|-----5-3-5-3---5---3---2------0p3----------------------------------------------|
C|-----------------------------------------------3p0--3p0------------------------|

'you wanna woman because you wanna be safe '
G|-------4---------------5--------------------------------------------------------------|
C|-------4---------------5--------------------------------------------------------------|
E|-------4---------------5--------------------------------------------------------------|
C|-------4---------------5--------------------------------------------------------------|
G|-------4---------------5-----------4--2-----------------------------------------------|
C|-------4---------------5--------------------------------------------------------------|

'you wanna woman who will call your name'
G|-------4---------------5--------------------------------------------------------------|
C|-------4---------------5--------------------------------------------------------------|
E|-------4---------------5--------------------------------------------------------------|
C|-------4---------------5--------------------------------------------------------------|
G|-------4---------------5-----------4--2-----------------------------------------------|
C|-------4---------------5--------------------------------------------------------------|

'it aint me babe   no no no it aint me babe'
G|----0-------------------------------------------------------------------------------|
C|----0-------------------------------------------------------------------------------|
E|----0-------------------------------------------------------------------------------|
C|----0-------------------------------------------------------------------------------|
G|----0-------------5---3----3------------0p3-----------------------------------------|
C|----0----------------------------------------------------3p0--3p0-------------------|

repeat for second chorus

ridiculous fast bit that's hard to tab out.. ¬¬

G|-----------------------------------------------------------------------------|
C|--------8------5-------3-------5-----3----5----3----5------------------------|
E|--------8-------5-------3-------5-----3----5----3----5----------------- X 1--|
C|-----------------------------------------------------------------------------|
G|-----------------------------------------------------------------------------|
C|-----------------------------------------------------------------------------|


G|-------------------------------------------------------------------------|
C|--------8------5-------3-------------------------------------------------|
E|--------8-------5-------3------------------------------------------------|
C|-------------------------------------------------------------------- X 2-|
G|-----------------------------------0p3-----------------------------------|
C|------------------------------------------------3p0----0-----------------|

you can pretty much put the whole song together when you listen to it enough times, keep
practicing and listening :)
Добавлено: 21.05.2012
Другие материалы по этой песне:
  • Аккорды и текст

Страница создана 21.05.2012
http://primanota.ru/laura-marling/i-am-a-master-hunter-chords.htm
Привет, Гость.
Предлагаем пройти революционный курс по гитаре.
Подарок от PrimaNota.Ru, забирай!